Oops, an error
Loading. Please wait.

Swarm Of The Formless tab

version 1
version 1

Whole song

Interactive

3,428 views 1 this week
1 commentread comment
1 2 3 4 5
x 4
add to favorites
×
Save as Personal and add changes to this tab that will be seen only by you. Learn more ›
×
You can save this tab as Personal to edit and correct it or add notes. All changes will be seen only by you. Learn more »
launch autoscroll
font size
0
reset
how to read this tab
guitar tuner
edit
Autoscroll
slow
fast
+/-
esc
set tempo
stop
Author
Tuning:
(guitar 1) (Bryssling) : tuned in B (B-E-A-D-F#-B)
(guitar 2) (Karlsson)  : regular 7 strings (B-E-A-D-G-B-E)

[Intro]
[Riff 1a] (x2)
e|---------|-------------------------------|----------------------------|
B|---------|o------------------------------|---------------------------o|
G|---------|-------------------------------|----------------------------|
D|-4---3---|--77777777-------5-6~--------9-|-77777777-------7----6--10--|
A|-4-5-3-4-|o----------7-6-4--------6------|----------7-6-4----8-------o|
E|---5---4-|--------------------------8~---|----------------------------|

e|---------|-------------------------------|----------------------------|
B|---------|-------------------------------|----------------------------|
G|---------|o------------------------------|---------------------------o|
D|---------|-------------------------------|----------------------------|
A|-4---3---|o-44444444-------223333------6-|-44444444-------4----3--7--o|
E|-4-5-3-4-|-------------------------------|-------------------5--------|
B|---5---4-|-----------5-4-2--------4-1~---|----------5-4-2-------------|

[Riff 1b] (x2)
e|--------------------------------|---------------------------^----|
B|o-------------------------------|---------------------------10~-o|
G|--------------------------------|----------------11"....-10------|
D|--7"...-10-10-10-6"...-10-10-10-|-7"...-10-10-10-----------------|
A|o-------------------------------|--------------------------------|
E|--------------------------------|--------------------------------|

e|--------------------------------|--------------------------------|
B|--------------------------------|--------------------------------|
G|o-------------------------------|-------------------------------o|
D|--------------------------------|--------------------------------|
A|o-44444444-------223333------6--|-44444444-------4----3--7------o|
E|--------------------------------|-------------------5------------|
B|-----------5-4-2--------4-1~----|----------5-4-2-----------------|

[Riff 1c] (x2)
e|-------------------------------|----------------------------|
B|o------------------------------|---------------------------o|
G|-------------------------------|----------------------------|
D|--44444444-------223333------6-|-44444444-------7----6--10--|
A|o-----------------------4------|----------7-6-4----8-------o|
E|-----------5-4-2----------1~---|----------------------------|

E|-------------------------------|----------------------------|
B|-------------------------------|----------------------------|
G|o------------------------------|---------------------------o|
D|-------------------------------|----------------------------|
A|o-44444444-------223333------6-|-44444444-------4----3--7--o|
E|-------------------------------|-------------------5--------|
B|-----------5-4-2--------4-1~---|----------5-4-2-------------|

[Riff 2a]
e|--------------------------------------------|
B|--------------------------------------------|
G|--------------------------------------------|
D|-----------------------------------------4--|
A|-------------2h3p2-1h2p1-----------------2--|
E|-3h4p3-3h4p3-------------3h4p3-3h4p3-4-3-2--|

e|--------------------------------------------|
B|--------------------------------------------|
G|--------------------------------------------|
D|--------------------------------------------|
A|-----------------------------------------4--|
E|-------------2h3p2-1h2p1-----------------2--|
B|-3h4p3-3h4p3-------------3h4p3-3h4p3-4-3-2--|

e|--------------------------------------|
B|--------------------------------------|
G|--------------------------------------|
D|--------------------------------3-----|
A|--------------2h3p2-1h2p1-4-----3-2-3-|
E|--3h4p3-3h4p3-------------4-3-4-------|

e|-------------------------------------|
B|-------------------------------------|
G|-------------------------------------|
D|-------------------------------------|
A|-------------------------------3-----|
E|-------------2h3p2-1h2p1-4-----3-2-3-|
B|-3h4p3-3h4p3-------------4-3-4-------|

e|---------------------------------------------|
B|---------------------------------------------|
G|---------------------------------------------|
D|------------------------------------------4--|
A|--------------2h3p2-1h2p1-----------------2--|
E|--3h4p3-3h4p3-------------3h4p3-3h4p3-4-3-2--|

e|--------------------------------------------|
B|--------------------------------------------|
G|--------------------------------------------|
D|--------------------------------------------|
A|-----------------------------------------4--|
E|-------------2h3p2-1h2p1-----------------2--|
B|-3h4p3-3h4p3-------------3h4p3-3h4p3-4-3-2--|

e|---------------------------------------|
B|---------------------------------------|
G|---------------------------------------|
D|------------------------------4-----5--|
A|--------------2h3p2-1h2p1-----2-----3--|
E|--3h4p3-3h4p3-------------4-3---5-4----|
                                      
e|--------------------------------------|
B|--------------------------------------|
G|--------------------------------------|
D|--------------------------------------|
A|-----------------------------4-----5--|
E|-------------2h3p2-1h2p1-----2-----3--|
B|-3h4p3-3h4p3-------------4-3---5-4----|

[Riff 2b]
e|--------------------------------------------|
B|--------------------------------------------|
G|--------------------------------------------|
D|-----------------------------------------4--|
A|-------------6h7p6-5h6p5-----------------2--|
E|-3h4p3-3h4p3-------------3h4p3-3h4p3-4-3-2--|

e|--------------------------------------------|
B|--------------------------------------------|
G|--------------------------------------------|
D|--------------------------------------------|
A|-----------------------------------------4--|
E|-------------2h3p2-1h2p1-----------------2--|
B|-3h4p3-3h4p3-------------3h4p3-3h4p3-4-3-2--|

e|--------------------------------------|
B|--------------------------------------|
G|--------------------------------------|
D|--------------------------------3-----|
A|--------------6h7p6-5h6p5-4-----3-2-3-|
E|--3h4p3-3h4p3-------------4-3-4-------|

e|-------------------------------------|
B|-------------------------------------|
G|-------------------------------------|
D|-------------------------------------|
A|-------------------------------3-----|
E|-------------2h3p2-1h2p1-4-----3-2-3-|
B|-3h4p3-3h4p3-------------4-3-4-------|

e|---------------------------------------------|
B|---------------------------------------------|
G|---------------------------------------------|
D|------------------------------------------4--|
A|--------------6h7p6-5h6p5-----------------2--|
E|--3h4p3-3h4p3-------------3h4p3-3h4p3-4-3-2--|

e|--------------------------------------------|
B|--------------------------------------------|
G|--------------------------------------------|
D|--------------------------------------------|
A|-----------------------------------------4--|
E|-------------2h3p2-1h2p1-----------------2--|
B|-3h4p3-3h4p3-------------3h4p3-3h4p3-4-3-2--|

e|--------------------------------------|
B|--------------------------------------|
G|--------------------------------------|
D|------------------------------4-----5-|
A|--------------6h7p6-5h6p5-----2-----3-|
E|--3h4p3-3h4p3-------------4-3---5-4---|

e|-------------------------------------|
B|-------------------------------------|
G|-------------------------------------|
D|-------------------------------------|
A|-----------------------------4-----5-|
E|-------------2h3p2-1h2p1-----2-----3-|
B|-3h4p3-3h4p3-------------4-3---5-4---|

[Riff 3] (x2)
e|----------------------------|------------------------------------------|
B|o---------------------------|---------------------------------------^--|
G|----------------------------|----------------------------10"-9"-----8~-|
D|---------------8-6---8------|----------------------8h9p8--------9-8----|
A|o-8-7--------------8--------|-8h11p8-7h10p7----------------------------|
E|------9-10-9p8---------9-10-|---------------8h11p8---------------------|

e|----------------------------|------------------------------------------|
B|----------------------------|------------------------------------------|
G|o---------------------------|------------------------------------------|
D|---------------------8-6-10-|-----------------------------5"-4"--------|
A|o--------------3-2-1--------|-7h10p7-6h9p6---------4h5p4---------------|
E|-------------------1-6-4--8-|---------------7h10p7------------------6~-|
B|--6-5-2-3--2p1--------------|-----------------------------------7-6----|

e|-----------------------------|----------------------------------|
B|-----------------------------|---------------------------------o|
G|-----------------------------|-----------------------------5-8--|
D|---------------------------8-|-----5-8-----6-9---------5-8------|
A|--9-9------------------8-7---|-5-8-----6-9-----6-9-5-8---------o|
E|------8-8-8h9p8-9h10p9-------|----------------------------------|

e|----------------------------|----------------------------------|
B|----------------------------|----------------------------------|
G|----------------------------|---------------------------------o|
D|----------------------------|-----------------------------8----|
A|----------------------------|-----8-------9-----------8-------o|
E|-4-4----------------------1-|-8-------9-------9---8------------|
B|-----3-3-1-2-1-2-3-2--1-0---|----------------------------------|

[Riff 2a]
e|--------------------------------------------|
B|--------------------------------------------|
G|--------------------------------------------|
D|-----------------------------------------4--|
A|-------------2h3p2-1h2p1-----------------2--|
E|-3h4p3-3h4p3-------------3h4p3-3h4p3-4-3-2--|

e|--------------------------------------------|
B|--------------------------------------------|
G|--------------------------------------------|
D|--------------------------------------------|
A|-----------------------------------------4--|
E|-------------2h3p2-1h2p1-----------------2--|
B|-3h4p3-3h4p3-------------3h4p3-3h4p3-4-3-2--|

e|--------------------------------------|
B|--------------------------------------|
G|--------------------------------------|
D|--------------------------------3-----|
A|--------------2h3p2-1h2p1-4-----3-2-3-|
E|--3h4p3-3h4p3-------------4-3-4-------|

e|-------------------------------------|
B|-------------------------------------|
G|-------------------------------------|
D|-------------------------------------|
A|-------------------------------3-----|
E|-------------2h3p2-1h2p1-4-----3-2-3-|
B|-3h4p3-3h4p3-------------4-3-4-------|

e|---------------------------------------------|
B|---------------------------------------------|
G|---------------------------------------------|
D|------------------------------------------4--|
A|--------------2h3p2-1h2p1-----------------2--|
E|--3h4p3-3h4p3-------------3h4p3-3h4p3-4-3-2--|

e|--------------------------------------------|
B|--------------------------------------------|
G|--------------------------------------------|
D|--------------------------------------------|
A|-----------------------------------------4--|
E|-------------2h3p2-1h2p1-----------------2--|
B|-3h4p3-3h4p3-------------3h4p3-3h4p3-4-3-2--|

e|---------------------------------------|
B|---------------------------------------|
G|---------------------------------------|
D|------------------------------4-----5--|
A|--------------2h3p2-1h2p1-----2-----3--|
E|--3h4p3-3h4p3-------------4-3---5-4----|
                                      
e|--------------------------------------|
B|--------------------------------------|
G|--------------------------------------|
D|--------------------------------------|
A|-----------------------------4-----5--|
E|-------------2h3p2-1h2p1-----2-----3--|
B|-3h4p3-3h4p3-------------4-3---5-4----|

[Riff 2b]
e|--------------------------------------------|
B|--------------------------------------------|
G|--------------------------------------------|
D|-----------------------------------------4--|
A|-------------6h7p6-5h6p5-----------------2--|
E|-3h4p3-3h4p3-------------3h4p3-3h4p3-4-3-2--|

e|--------------------------------------------|
B|--------------------------------------------|
G|--------------------------------------------|
D|--------------------------------------------|
A|-----------------------------------------4--|
E|-------------2h3p2-1h2p1-----------------2--|
B|-3h4p3-3h4p3-------------3h4p3-3h4p3-4-3-2--|

e|--------------------------------------|
B|--------------------------------------|
G|--------------------------------------|
D|--------------------------------3-----|
A|--------------6h7p6-5h6p5-4-----3-2-3-|
E|--3h4p3-3h4p3-------------4-3-4-------|

e|-------------------------------------|
B|-------------------------------------|
G|-------------------------------------|
D|-------------------------------------|
A|-------------------------------3-----|
E|-------------2h3p2-1h2p1-4-----3-2-3-|
B|-3h4p3-3h4p3-------------4-3-4-------|

e|---------------------------------------------|
B|---------------------------------------------|
G|---------------------------------------------|
D|------------------------------------------4--|
A|--------------6h7p6-5h6p5-----------------2--|
E|--3h4p3-3h4p3-------------3h4p3-3h4p3-4-3-2--|

e|--------------------------------------------|
B|--------------------------------------------|
G|--------------------------------------------|
D|--------------------------------------------|
A|-----------------------------------------4--|
E|-------------2h3p2-1h2p1-----------------2--|
B|-3h4p3-3h4p3-------------3h4p3-3h4p3-4-3-2--|

e|--------------------------------------|
B|--------------------------------------|
G|--------------------------------------|
D|------------------------------4-----5-|
A|--------------6h7p6-5h6p5-----2-----3-|
E|--3h4p3-3h4p3-------------4-3---5-4---|

e|-------------------------------------|
B|-------------------------------------|
G|-------------------------------------|
D|-------------------------------------|
A|-----------------------------4-----5-|
E|-------------2h3p2-1h2p1-----2-----3-|
B|-3h4p3-3h4p3-------------4-3---5-4---|

[Riff 4a]
e|---------------------------------------------|
B|---------------------------------------------|
G|---------------------------------------------|
D|-----2h5p2-1h4p1-----------------------------|
A|---------------------------------5h8p5-4h7p4-|
E|-0-0-------------0-0-3h6p3-2h5p2-------------|

e|---------------------------------------------|
B|---------------------------------------------|
G|---------------------------------------------|
D|---------------------------------------------|
A|-----2h5p2-1h4p2-----------------------------|
E|---------------------------------5h8p5-4h7p4-|
B|-0-0-------------0-0-3h6p3-2h5p2-------------|

e|-------------------------------------------|
B|-------------------------------------------|
G|-------------------------------------------|
D|------2h5p2-1h4p1---------------------8/10-|
A|--------------------------------------6/8--|
E|--0-0-------------0-0-3h6p3-2h5p2-3-2------|

e|------------------------------------------|
B|------------------------------------------|
G|------------------------------------------|
D|------------------------------------------|
A|-----2h5p2-1h4p2---------------------8/10-|
E|-------------------------------------6/8--|
B|-0-0-------------0-0-3h6p3-2h5p2-3-2------|

e|----------------------------------------------|
B|----------------------------------------------|
G|----------------------------------------------|
D|------2h5p2-1h4p1-----------------------------|
A|----------------------------------5h8p5-4h7p4-|
E|--0-0-------------0-0-3h6p3-2h5p2-------------|

e|---------------------------------------------|
B|---------------------------------------------|
G|---------------------------------------------|
D|---------------------------------------------|
A|-----2h5p2-1h4p2-----------------------------|
E|---------------------------------5h8p5-4h7p4-|
B|-0-0-------------0-0-3h6p3-2h5p2-------------|

e|------------------------------------------|
B|------------------------------------------|
G|------------------------------------------|
D|------2h5p2-1h4p1-------------------------|
A|------------------------------------------|
E|--0-0-------------0-0-3h6p3-2h5p2-5-4-3---|

e|-----------------------------------------|
B|-----------------------------------------|
G|-----------------------------------------|
D|-----------------------------------------|
A|-----2h5p2-1h4p2-------------------------|
E|-----------------------------------------|
B|-0-0-------------0-0-3h6p3-2h5p2-5-4-3---|

[Riff 4a]
e|---------------------------------------------|
B|---------------------------------------------|
G|---------------------------------------------|
D|-----2h5p2-1h4p1-----------------------------|
A|---------------------------------5h8p5-4h7p4-|
E|-0-0-------------0-0-3h6p3-2h5p2-------------|

e|---------------------------------------------|
B|---------------------------------------------|
G|---------------------------------------------|
D|---------------------------------------------|
A|-----5h8p5-4h7p4-----------------3h6p3-2h5p2-|
E|---------------------------------------------|
B|-0-0-------------0-0-6h9p6-5h8p5-------------|

e|-------------------------------------------|
B|-------------------------------------------|
G|-------------------------------------------|
D|------2h5p2-1h4p1---------------------8/10-|
A|--------------------------------------6/8--|
E|--0-0-------------0-0-3h6p3-2h5p2-3-2------|

e|------------------------------------------|
B|------------------------------------------|
G|------------------------------------------|
D|------------------------------------------|
A|-----5h8p5-4h7p4---------------------8/10-|
E|-------------------------------------6/8--|
B|-0-0-------------0-0-6h9p6-5h8p5-3-2------|

e|----------------------------------------------|
B|----------------------------------------------|
G|----------------------------------------------|
D|------2h5p2-1h4p1-----------------------------|
A|----------------------------------5h8p5-4h7p4-|
E|--0-0-------------0-0-3h6p3-2h5p2-------------|

e|---------------------------------------------|
B|---------------------------------------------|
G|---------------------------------------------|
D|---------------------------------------------|
A|-----5h8p5-4h7p4-----------------3h6p3-2h5p2-|
E|---------------------------------------------|
B|-0-0-------------0-0-6h9p6-5h8p5-------------|

e|------------------------------------------|
B|------------------------------------------|
G|------------------------------------------|
D|------2h5p2-1h4p1-------------------------|
A|------------------------------------------|
E|--0-0-------------0-0-3h6p3-2h5p2-5-4-3---|

e|-----------------------------------------|
B|-----------------------------------------|
G|-----------------------------------------|
D|-----------------------------------------|
A|-----5h8p5-4h7p4-------------------------|
E|-----------------------------------------|
B|-0-0-------------0-0-6h9p6-5h8p5-5-4-3---|

[Riff 1c] (x2)
e|-------------------------------|----------------------------|
B|o------------------------------|---------------------------o|
G|-------------------------------|----------------------------|
D|--44444444-------223333------6-|-44444444-------7----6--10--|
A|o-----------------------4------|----------7-6-4----8-------o|
E|-----------5-4-2----------1~---|----------------------------|

E|-------------------------------|----------------------------|
B|-------------------------------|----------------------------|
G|o------------------------------|---------------------------o|
D|-------------------------------|----------------------------|
A|o-44444444-------223333------6-|-44444444-------4----3--7--o|
E|-------------------------------|-------------------5--------|
B|-----------5-4-2--------4-1~---|----------5-4-2-------------|

[Riff 1a] (x2)
e|---------|-------------------------------|----------------------------|
B|---------|o------------------------------|---------------------------o|
G|---------|-------------------------------|----------------------------|
D|-4---3---|--77777777-------5-6~--------9-|-77777777-------7----6--10--|
A|-4-5-3-4-|o----------7-6-4--------6------|----------7-6-4----8-------o|
E|---5---4-|--------------------------8~---|----------------------------|

e|---------|-------------------------------|----------------------------|
B|---------|-------------------------------|----------------------------|
G|---------|o------------------------------|---------------------------o|
D|---------|-------------------------------|----------------------------|
A|-4---3---|o-44444444-------223333------6-|-44444444-------4----3--7--o|
E|-4-5-3-4-|-------------------------------|-------------------5--------|
B|---5---4-|-----------5-4-2--------4-1~---|----------5-4-2-------------|

[Riff 5] (x6)
e|-------------------------|-------------------6--6-|
B|-------------------------|-------------------6--6-|
G|---------7/9-------------|---------7/9------------|
D|-5-----9-5/7-----------9-|-5-----9-5/7------------|
A|-3-333-7-----7-----7---7-|-3-333-7-----7----------|
E|-------------5-555-5/6---|-------------5-555------|

[Riff 3] (x2)
e|----------------------------|------------------------------------------|
B|o---------------------------|---------------------------------------^--|
G|----------------------------|----------------------------10"-9"-----8~-|
D|---------------8-6---8------|----------------------8h9p8--------9-8----|
A|o-8-7--------------8--------|-8h11p8-7h10p7----------------------------|
E|------9-10-9p8---------9-10-|---------------8h11p8---------------------|

e|----------------------------|------------------------------------------|
B|----------------------------|------------------------------------------|
G|o---------------------------|------------------------------------------|
D|---------------------8-6-10-|-----------------------------5"-4"--------|
A|o--------------3-2-1--------|-7h10p7-6h9p6---------4h5p4---------------|
E|-------------------1-6-4--8-|---------------7h10p7------------------6~-|
B|--6-5-2-3--2p1--------------|-----------------------------------7-6----|

e|-----------------------------|----------------------------------|
B|-----------------------------|---------------------------------o|
G|-----------------------------|-----------------------------5-8--|
D|---------------------------8-|-----5-8-----6-9---------5-8------|
A|--9-9------------------8-7---|-5-8-----6-9-----6-9-5-8---------o|
E|------8-8-8h9p8-9h10p9-------|----------------------------------|

e|----------------------------|----------------------------------|
B|----------------------------|----------------------------------|
G|----------------------------|---------------------------------o|
D|----------------------------|-----------------------------8----|
A|----------------------------|-----8-------9-----------8-------o|
E|-4-4----------------------1-|-8-------9-------9---8------------|
B|-----3-3-1-2-1-2-3-2--1-0---|----------------------------------|

[Riff 6a]
e|--------------------------------------|--------------------------------|
B|o-------------------------------------|-------------------------------o|
G|--------------------------------5h8p5-|--------------------------------|
D|----------------------4h7p4-----------|----------------------------2---|
A|o-------7-----3-4-6-0-------6-0-------|-------7-----3-4-----1------2--o|
E|--7-6-5---6-5-------------------------|-7-6-5---6-5-----4-3-1--4-3-----|

e|--------------------------------------|--------------------------------|
B|--------------------------------------|--------------------------------|
G|o-------------------------------------|-------------------------------o|
D|--------------------------------5h8p5-|--------------------------------|
A|o---------------------4h7p4-----------|----------------------------2--o|
E|--------7-----3-4-6-0-------6-0-------|-------7-----3-4-----1------2---|
B|--7-6-5---6-5-------------------------|-7-6-5---6-5-----4-3-1--4-3-----|

[Riff 6b]                                
e|--------------------------------------|--------------------------------|
B|o-------------------------------------|-------------------------------o|
G|--------------------------------5h8p5-|--------------------------------|
D|--------9-----5-6-----4h7p4-----------|-------9-----5-6------------2---|
A|o-9-8-7---8-7-----6-0-------6-0-------|-9-8-7---8-7---------1------2--o|
E|--------------------------------------|-----------------4-3-1--4-3-----|

e|--------------------------------------|--------------------------------|
B|--------------------------------------|--------------------------------|
G|o-------------------------------------|-------------------------------o|
D|--------------------------------5h8p5-|--------------------------------|
A|o---------------------4h7p4-----------|----------------------------2--o|
E|--------7-----3-4-6-0-------6-0-------|-------7-----3-4-----1------2---|
B|--7-6-5---6-5-------------------------|-7-6-5---6-5-----4-3-1--4-3-----|
  
e|------------------------------|
B|------------------------------|
G|------------------------------|
D|-------9-----5-6--------------|
A|-9-8-7---8-7---------1--5--1--|
E|-----------------4-3-1--5--1--|

e|------------------------------|
B|------------------------------|
G|------------------------------|
D|------------------------------|
A|------------------------------|
E|-------7-----3-4-----1--5--1--|
B|-7-6-5---6-5-----4-3-1--5--1--|

[Riff 4a]
e|---------------------------------------------|
B|---------------------------------------------|
G|---------------------------------------------|
D|-----2h5p2-1h4p1-----------------------------|
A|---------------------------------5h8p5-4h7p4-|
E|-0-0-------------0-0-3h6p3-2h5p2-------------|

e|---------------------------------------------|
B|---------------------------------------------|
G|---------------------------------------------|
D|---------------------------------------------|
A|-----5h8p5-4h7p4-----------------3h6p3-2h5p2-|
E|---------------------------------------------|
B|-0-0-------------0-0-6h9p6-5h8p5-------------|

e|-------------------------------------------|
B|-------------------------------------------|
G|-------------------------------------------|
D|------2h5p2-1h4p1---------------------8/10-|
A|--------------------------------------6/8--|
E|--0-0-------------0-0-3h6p3-2h5p2-3-2------|

e|------------------------------------------|
B|------------------------------------------|
G|------------------------------------------|
D|------------------------------------------|
A|-----5h8p5-4h7p4---------------------8/10-|
E|-------------------------------------6/8--|
B|-0-0-------------0-0-6h9p6-5h8p5-3-2------|

e|----------------------------------------------|
B|----------------------------------------------|
G|----------------------------------------------|
D|------2h5p2-1h4p1-----------------------------|
A|----------------------------------5h8p5-4h7p4-|
E|--0-0-------------0-0-3h6p3-2h5p2-------------|

e|---------------------------------------------|
B|---------------------------------------------|
G|---------------------------------------------|
D|---------------------------------------------|
A|-----5h8p5-4h7p4-----------------3h6p3-2h5p2-|
E|---------------------------------------------|
B|-0-0-------------0-0-6h9p6-5h8p5-------------|

e|------------------------------------------|
B|------------------------------------------|
G|------------------------------------------|
D|------2h5p2-1h4p1-------------------------|
A|------------------------------------------|
E|--0-0-------------0-0-3h6p3-2h5p2-5-4-3---|

e|-----------------------------------------|
B|-----------------------------------------|
G|-----------------------------------------|
D|-----------------------------------------|
A|-----5h8p5-4h7p4-------------------------|
E|-----------------------------------------|
B|-0-0-------------0-0-6h9p6-5h8p5-5-4-3---|

[Riff 2a]
e|--------------------------------------------|
B|--------------------------------------------|
G|--------------------------------------------|
D|-----------------------------------------4--|
A|-------------2h3p2-1h2p1-----------------2--|
E|-3h4p3-3h4p3-------------3h4p3-3h4p3-4-3-2--|

e|--------------------------------------------|
B|--------------------------------------------|
G|--------------------------------------------|
D|--------------------------------------------|
A|-----------------------------------------4--|
E|-------------2h3p2-1h2p1-----------------2--|
B|-3h4p3-3h4p3-------------3h4p3-3h4p3-4-3-2--|

e|--------------------------------------|
B|--------------------------------------|
G|--------------------------------------|
D|--------------------------------3-----|
A|--------------2h3p2-1h2p1-4-----3-2-3-|
E|--3h4p3-3h4p3-------------4-3-4-------|

e|-------------------------------------|
B|-------------------------------------|
G|-------------------------------------|
D|-------------------------------------|
A|-------------------------------3-----|
E|-------------2h3p2-1h2p1-4-----3-2-3-|
B|-3h4p3-3h4p3-------------4-3-4-------|

e|---------------------------------------------|
B|---------------------------------------------|
G|---------------------------------------------|
D|------------------------------------------4--|
A|--------------2h3p2-1h2p1-----------------2--|
E|--3h4p3-3h4p3-------------3h4p3-3h4p3-4-3-2--|

e|--------------------------------------------|
B|--------------------------------------------|
G|--------------------------------------------|
D|--------------------------------------------|
A|-----------------------------------------4--|
E|-------------2h3p2-1h2p1-----------------2--|
B|-3h4p3-3h4p3-------------3h4p3-3h4p3-4-3-2--|

e|---------------------------------------|
B|---------------------------------------|
G|---------------------------------------|
D|------------------------------4-----5--|
A|--------------2h3p2-1h2p1-----2-----3--|
E|--3h4p3-3h4p3-------------4-3---5-4----|
                                      
e|--------------------------------------|
B|--------------------------------------|
G|--------------------------------------|
D|--------------------------------------|
A|-----------------------------4-----5--|
E|-------------2h3p2-1h2p1-----2-----3--|
B|-3h4p3-3h4p3-------------4-3---5-4----|

[Riff 2b]
e|--------------------------------------------|
B|--------------------------------------------|
G|--------------------------------------------|
D|-----------------------------------------4--|
A|-------------6h7p6-5h6p5-----------------2--|
E|-3h4p3-3h4p3-------------3h4p3-3h4p3-4-3-2--|

e|--------------------------------------------|
B|--------------------------------------------|
G|--------------------------------------------|
D|--------------------------------------------|
A|-----------------------------------------4--|
E|-------------2h3p2-1h2p1-----------------2--|
B|-3h4p3-3h4p3-------------3h4p3-3h4p3-4-3-2--|

e|--------------------------------------|
B|--------------------------------------|
G|--------------------------------------|
D|--------------------------------3-----|
A|--------------6h7p6-5h6p5-4-----3-2-3-|
E|--3h4p3-3h4p3-------------4-3-4-------|

e|-------------------------------------|
B|-------------------------------------|
G|-------------------------------------|
D|-------------------------------------|
A|-------------------------------3-----|
E|-------------2h3p2-1h2p1-4-----3-2-3-|
B|-3h4p3-3h4p3-------------4-3-4-------|

e|---------------------------------------------|
B|---------------------------------------------|
G|---------------------------------------------|
D|------------------------------------------4--|
A|--------------6h7p6-5h6p5-----------------2--|
E|--3h4p3-3h4p3-------------3h4p3-3h4p3-4-3-2--|

e|--------------------------------------------|
B|--------------------------------------------|
G|--------------------------------------------|
D|--------------------------------------------|
A|-----------------------------------------4--|
E|-------------2h3p2-1h2p1-----------------2--|
B|-3h4p3-3h4p3-------------3h4p3-3h4p3-4-3-2--|

e|--------------------------------------|
B|--------------------------------------|
G|--------------------------------------|
D|------------------------------4-----5-|
A|--------------6h7p6-5h6p5-----2-----3-|
E|--3h4p3-3h4p3-------------4-3---5-4---|

e|-------------------------------------|
B|-------------------------------------|
G|-------------------------------------|
D|-------------------------------------|
A|-----------------------------4-----5-|
E|-------------2h3p2-1h2p1-----2-----3-|
B|-3h4p3-3h4p3-------------4-3---5-4---|

[Instrumental] 
[Riff 1a] (x2)
e|---------|-------------------------------|----------------------------|
B|---------|o------------------------------|---------------------------o|
G|---------|-------------------------------|----------------------------|
D|-4---3---|--77777777-------5-6~--------9-|-77777777-------7----6--10--|
A|-4-5-3-4-|o----------7-6-4--------6------|----------7-6-4----8-------o|
E|---5---4-|--------------------------8~---|----------------------------|

e|---------|-------------------------------|----------------------------|
B|---------|-------------------------------|----------------------------|
G|---------|o------------------------------|---------------------------o|
D|---------|-------------------------------|----------------------------|
A|-4---3---|o-44444444-------223333------6-|-44444444-------4----3--7--o|
E|-4-5-3-4-|-------------------------------|-------------------5--------|
B|---5---4-|-----------5-4-2--------4-1~---|----------5-4-2-------------|

[Riff 1b] (x2)
e|--------------------------------|---------------------------^----|
B|o-------------------------------|---------------------------10~-o|
G|--------------------------------|----------------11"....-10------|
D|--7"...-10-10-10-6"...-10-10-10-|-7"...-10-10-10-----------------|
A|o-------------------------------|--------------------------------|
E|--------------------------------|--------------------------------|

e|--------------------------------|--------------------------------|
B|--------------------------------|--------------------------------|
G|o-------------------------------|-------------------------------o|
D|--------------------------------|--------------------------------|
A|o-44444444-------223333------6--|-44444444-------4----3--7------o|
E|--------------------------------|-------------------5------------|
B|-----------5-4-2--------4-1~----|----------5-4-2-----------------|

[Riff 1c] (x2)
e|-------------------------------|----------------------------|
B|o------------------------------|---------------------------o|
G|-------------------------------|----------------------------|
D|--44444444-------223333------6-|-44444444-------7----6--10--|
A|o-----------------------4------|----------7-6-4----8-------o|
E|-----------5-4-2----------1~---|----------------------------|

E|-------------------------------|----------------------------|
B|-------------------------------|----------------------------|
G|o------------------------------|---------------------------o|
D|-------------------------------|----------------------------|
A|o-44444444-------223333------6-|-44444444-------4----3--7--o|
E|-------------------------------|-------------------5--------|
B|-----------5-4-2--------4-1~---|----------5-4-2-------------|

[Riff 1c] (x2)
e|-------------------------------|----------------------------|
B|o------------------------------|---------------------------o|
G|-------------------------------|----------------------------|
D|--44444444-------223333------6-|-44444444-------7----6--10--|
A|o-----------------------4------|----------7-6-4----8-------o|
E|-----------5-4-2----------1~---|----------------------------|

E|-------------------------------|----------------------------|
B|-------------------------------|----------------------------|
G|o------------------------------|---------------------------o|
D|-------------------------------|----------------------------|
A|o-44444444-------223333------6-|-44444444-------4----3--7--o|
E|-------------------------------|-------------------5--------|
B|-----------5-4-2--------4-1~---|----------5-4-2-------------|

[Riff 1b] (x2)
e|--------------------------------|---------------------------^----|
B|o-------------------------------|---------------------------10~-o|
G|--------------------------------|----------------11"....-10------|
D|--7"...-10-10-10-6"...-10-10-10-|-7"...-10-10-10-----------------|
A|o-------------------------------|--------------------------------|
E|--------------------------------|--------------------------------|

e|--------------------------------|--------------------------------|
B|--------------------------------|--------------------------------|
G|o-------------------------------|-------------------------------o|
D|--------------------------------|--------------------------------|
A|o-44444444-------223333------6--|-44444444-------4----3--7------o|
E|--------------------------------|-------------------5------------|
B|-----------5-4-2--------4-1~----|----------5-4-2-----------------|



************************************

| ~  Vibrato
| h  Hammer-on
| p  Pull-off
| /  Slide up
| "  
| "... 
| ".... 
| ^  
| o  

************************************

            
            
Suggest correction
Creating personal tab
Creating personal tab
You can edit any tab online and save it as your Personal.

You can edit, replace or remove any tab part or add personal notes – all changes will be seen only by you.

Personal tabs can be accessed anytime from any device, even offline.
Learn more »
comments
print report bad tab
1 comment total.
0 reply
ruker 3,458 Apr 14, 2008 01:40 PM

Dude, not ****ing bad at all! The official tab (from Bryzz) is at RoG if you didn't already know. This is pretty close.

guest
You may want to rate the tab now too:
select rating
Wanna post a correction for this tab? Suggest correction