Oops, an error
Loading. Please wait.

Paco Doesnt Love Me Bass

by Spazzys
169 views 1 this week
no commentswrite comment
1 2 3 4 5
2 more votes to show rating
add to favorites
launch autoscroll
font size
0
reset
guitar tuner
×
Best way to learn
"Paco Doesnt Love Me"
Autoscroll
slow
fast
+/-
esc
set tempo
stop
The Spazzys.. Ok These Chicks r from Aussie.. and They Rock.. yAy www.spazzys.com

PACO DOESNT LOVE ME

G|----------------|
D|----------------|x 4
A|----------------|
E|--3/5-5-5-5-5-5-|

G|--------------------------------------------------------------|
D|--------------------------------------------------------------|
A|----------------5--5-5--7--7-7----------------5--5-5--7--7-7--|
E|--3/5-5-5-5-5-5-----------------3/5-5-5-5-5-5-----------------|

G|--------------------------------------------------------------|
D|--------------------------------------------------------------|
A|--------------5--5-5--7--7-7----------------------------------|
E|--2--2-2-2-2-------------------3/5-5-5-5-5-5--3/5-5-5-5-5-5---|

VERSE 1

G|--------------------------------------------|    |------------------------------|
D|--------------------------------------------|    |------------------------------|
A|-----------55555555---77777777---555555555--|X 2 |------------------------------|
E|-55555555-----------------------------------|    |-3/5-5-5-5-5-5--3/5-5-5-5-5-5-|

CHORUS 1

G|-----------------------------------------------------|
D|-----------------------------------------------------|
A|-5--5-5-5-5--7--7-7-7-7--------------9---9--9--9--9--|
E|-------------------------5--5-5-5-5------------------|

G|------------------------------------------------------|
D|------------------------------------------------------|
A|-5--5-5-5-5--7--7-7-7-7-------------------------------|
E|-------------------------3/5-5-5-5-5-5--3/5-5-5-5-5-5-|

G|---------------------------------------|
D|---------------------------------------|
A|-5--5-5-5-5--7--7-7-7-7----------------|
E|-------------------------5---3---2---0-|

G|-------------------------------------------------|
D|-------------------------------------------------|
A|-5--5-5-5-5--7-----------------------------------|
E|--------------------3/5-5-5-5-5-5--3/5-5-5-5-5-5-|

G|--------------------------------------------------------------|
D|--------------------------------------------------------------|
A|----------------5--5-5--7--7-7----------------5--5-5--7--7-7--|
E|--3/5-5-5-5-5-5-----------------3/5-5-5-5-5-5-----------------|

G|------------------------------------------------------------|
D|------------------------------------------------------------|
A|--------------5--5-5--7--7-7--------------------------------|
E|--2--2-2-2-2-------------------3/5-5-5-5-5-5--3/5-5-5-5-5-5-|


VERSE 2

G|--------------------------------------------|    |------------------------------|
D|--------------------------------------------|    |------------------------------|
A|----------55555555---77777777---555555555---|X 2 |------------------------------|
E|-55555555-----------------------------------|    |-3/5-5-5-5-5-5--3/5-5-5-5-5-5-|

CHORUS 2

G|-----------------------------------------------------|
D|-----------------------------------------------------|
A|-5--5-5-5-5--7--7-7-7-7--------------9---9--9--9--9--|
E|-------------------------5--5-5-5-5------------------|

G|------------------------------------------------------|
D|------------------------------------------------------|
A|-5--5-5-5-5--7--7-7-7-7-------------------------------|
E|-------------------------3/5-5-5-5-5-5--3/5-5-5-5-5-5-|

G|---------------------------------------|
D|---------------------------------------|
A|-5--5-5-5-5--7--7-7-7-7----------------|
E|-------------------------5---3---2---0-|

G|-------------------------------------------------|
D|-------------------------------------------------|
A|-5--5-5-5-5--7-----------------------------------|
E|--------------------3/5-5-5-5-5-5--3/5-5-5-5-5-5-|


GUIATR SOLO OVER

G|-----------------------------------------------------|
D|-----------------------------------------------------|
A|-5--5-5-5-5--7--7-7-7-7--------------9---9--9--9--9--|
E|-------------------------5--5-5-5-5------------------|

G|------------------------------------------------------|
D|------------------------------------------------------|
A|-5--5-5-5-5--7--7-7-7-7-------------------------------|
E|-------------------------3/5-5-5-5-5-5--3/5-5-5-5-5-5-|

G|---------------------------------------|
D|---------------------------------------|
A|-5--5-5-5-5--7--7-7-7-7----------------|
E|-------------------------5---3---2---0-|

G|-------------------------------------------------|
D|-------------------------------------------------|
A|-5--5-5-5-5--7-----------------------------------|
E|--------------------3/5-5-5-5-5-5--3/5-5-5-5-5-5-|

CHORUs AGAIN...
Suggest correction
Give kudos to tab author, rate the tab!
1 2 3 4 5
comments
print report bad tab
guest
You may want to rate the tab now too:
select rating
Wanna post a correction for this tab? Suggest correction