Oops, an error
Loading. Please wait.

Eight Weeks tab

142 views 6 this week
no commentswrite comment
1 2 3 4 5
3 more votes to show rating
add to favorites
×
Save as Personal and add changes to this tab that will be seen only by you. Learn more ›
×
You can save this tab as Personal to edit and correct it or add notes. All changes will be seen only by you. Learn more »
launch autoscroll
font size
0
reset
how to read this tab
guitar tuner
edit
Autoscroll
slow
fast
+/-
esc
set tempo
stop
About this tab version
Another great song from a fantastic artist. Was this info helpful? Yes No
Speak Low If You Speak Love-Eight Weeks
Tabbed by Billy Borus
Tuning: DADGAD
Capo 2nd fret
Everything is relative to the capo.

[Intro]
Acoustic Guitar
d|-0-0-0--0-0-0--0-0-0-0--0-0-0-0-----------------------------------------------------------|
A|-0-0-0--0-0-0--0-0-0-0--0-0-0-0-----------------------------------------------------------|
G|-2-2-2--0-0-0--0-0-0-0--0-0-0-0-----------------------------------------------------------| x2
D|-4-4-4--4-4-4--4-5-5-4--4-5-5-4-----------------------------------------------------------|
A|-0-0-0--2-2-2--5-5-5-5--5-5-5-5-----------------------------------------------------------|
D|-0-0-0--0-0-0--5-5-5-5--5-5-5-5-----------------------------------------------------------|

Acoustic Guitar
d|-0-0-0--0-0-0--0-0-0-0--0-0-0-0-----------------------------------------------------------|
A|-0-0-0--0-0-0--0-0-0-0--0-0-0-0-----------------------------------------------------------|
G|-2-2-2--0-0-0--0-0-0-0--0-0-0-0-----------------------------------------------------------| x2
D|-4-4-4--4-4-4--4-5-5-4--4-5-5-4-----------------------------------------------------------|
A|-0-0-0--2-2-2--5-5-5-5--5-5-5-5-----------------------------------------------------------|
D|-0-0-0--0-0-0--5-5-5-5--5-5-5-5-----------------------------------------------------------|

Electric Guitar (Comes in with the drums)
d|------------------------------7-----------------------------------7-9------|
A|-7h9-9-9-9p7\5--7h9-9-9-9p7\5---9--7--7h9-9-9-9p7\5-7h9-9-9-9p7\5-----9-7--|
G|---------------------------------------------------------------------------|
D|---------------------------------------------------------------------------|
A|---------------------------------------------------------------------------|
D|---------------------------------------------------------------------------|

[Verse] "I thought you'd have the decency..."
PM *******************************
d|-0-0-0--0-0-0--0-0-0-0--0-0-0-0-----------------------------------------------------------|
A|-0-0-0--0-0-0--0-0-0-0--0-0-0-0-----------------------------------------------------------|
G|-2-2-2--0-0-0--0-0-0-0--0-0-0-0-----------------------------------------------------------| x4
D|-4-4-4--4-4-4--5-5-5-5--5-5-5-5-----------------------------------------------------------|
A|-0-0-0--2-2-2--5-5-5-5--5-5-5-5-----------------------------------------------------------|
D|-0-0-0--0-0-0--5-5-5-5--5-5-5-5-----------------------------------------------------------|

[Pre-chorus] "Well I've never met a southern Belle.."
d|----------------------------------------------------------------------------|
A|----------------------------------------------------------------------------|
G|-11-11-11--9-9-9---7-7-7-7-7-7---11-11-11--9-9-9---7-7-7-7-7-7-7------------|
D|-0--0--0---0-0-0---0-0-0-0-0-0---0--0--0---0-0-0---0-0-0-0-0-0-0------------|
A|-0--0--0---0-0-0---0-0-0-0-0-0---0--0--0---0-0-0---0-0-0-0-0-0-0------------|
D|-9--9--9---7-7-7---5-5-5-5-5-5---9--9--9---7-7-7---5-5-5-5-5-5-5------------|

[Chorus] "And I can't believe..."
d|-0-0-0-0-0-0---0-0-0-0-0-0--0-0-0-0-0-0--0-0-0-0-0-0-0-0-0-0-0--------------------------------|
A|-0-0-0-0-0-0---0-0-0-0-0-0--0-0-0-0-0-0--0-0-0-0-0-0-0-0-0-0-0--------------------------------|
G|-7-7-7-7-7-7---2-2-2-2-2-2--0-0-0-0-0-0--0-0-0-0-0-0-0-0-0-0-0--------------------------------| x2
D|-7-7-7-7-7-7---2-2-2-2-2-2--4-4-4-4-4-4--4-5-5-4-4-5-5-4-4-5-4--------------------------------|
A|-0-0-0-0-0-0---0-0-0-0-0-0--2-2-2-2-2-2--5-5-5-5-5-5-5-5-5-5-5--------------------------------|
D|-0-0-0-0-0-0---0-0-0-0-0-0--0-0-0-0-0-0--5-5-5-5-5-5-5-5-5-5-5--------------------------------|

[Interlude] "La da da dee da"
Acoustic Guitar
d|-0-0-0--0-0-0--0-0-0-0--0-0-0-0-----------------------------------------------------------|
A|-0-0-0--0-0-0--0-0-0-0--0-0-0-0-----------------------------------------------------------|
G|-2-2-2--0-0-0--0-0-0-0--0-0-0-0-----------------------------------------------------------| x2
D|-4-4-4--4-4-4--4-5-5-4--4-5-5-4-----------------------------------------------------------|
A|-0-0-0--2-2-2--5-5-5-5--5-5-5-5-----------------------------------------------------------|
D|-0-0-0--0-0-0--5-5-5-5--5-5-5-5-----------------------------------------------------------|

Electric Guitar 
d|------------------------------7-----------------------------------7-9------|
A|-7h9-9-9-9p7\5--7h9-9-9-9p7\5---9--7--7h9-9-9-9p7\5-7h9-9-9-9p7\5-----9-7--|
G|---------------------------------------------------------------------------|
D|---------------------------------------------------------------------------|
A|---------------------------------------------------------------------------|
D|---------------------------------------------------------------------------|

[Verse] "It took everything within me..."
PM *******************************
d|-0-0-0--0-0-0--0-0-0-0--0-0-0-0-----------------------------------------------------------|
A|-0-0-0--0-0-0--0-0-0-0--0-0-0-0-----------------------------------------------------------|
G|-2-2-2--0-0-0--0-0-0-0--0-0-0-0-----------------------------------------------------------| x4
D|-4-4-4--4-4-4--0-4-5-0--0-4-5-0-----------------------------------------------------------|
A|-0-0-0--2-2-2--5-5-5-5--5-5-5-5-----------------------------------------------------------|
D|-0-0-0--0-0-0--5-5-5-5--5-5-5-5-----------------------------------------------------------|

[Bridge] "But I was foolish!"
d|-0-0-0-0-0-0--0-0-0-0-0-0--0-0-0-0-0-0--0-0-0-0-0-0-----------------------------------------|
A|-0-0-0-0-0-0--0-0-0-0-0-0--0-0-0-0-0-0--0-0-0-0-0-0-----------------------------------------|
G|-0-0-0-0-0-0--0-0-0-0-0-0--0-0-0-0-0-0--0-0-0-0-0-0-----------------------------------------|
D|-0-0-0-0-0-0--0-0-0-0-0-0--0-0-0-0-0-0--0-0-0-0-0-0-----------------------------------------|
A|-2-2-2-2-2-2--4-4-4-4-4-4--5-5-5-5-5-5--7-7-7-7-7-7-----------------------------------------|
D|-2-2-2-2-2-2--4-4-4-4-4-4--5-5-5-5-5-5--7-7-7-7-7-7-----------------------------------------|

[Chorus] "And I can't believe..."
PM****************************************************************
d|-0-0-0-0-0-0---0-0-0-0-0-0--0-0-0-0-0-0--0-0-0-0-0-0-0-0-0-0-0--------------------------------|
A|-0-0-0-0-0-0---0-0-0-0-0-0--0-0-0-0-0-0--0-0-0-0-0-0-0-0-0-0-0--------------------------------|
G|-7-7-7-7-7-7---2-2-2-2-2-2--0-0-0-0-0-0--0-0-0-0-0-0-0-0-0-0-0--------------------------------| x2
D|-7-7-7-7-7-7---2-2-2-2-2-2--4-4-4-4-4-4--4-5-5-4-4-5-5-4-4-5-4--------------------------------|
A|-0-0-0-0-0-0---0-0-0-0-0-0--2-2-2-2-2-2--5-5-5-5-5-5-5-5-5-5-5--------------------------------|
D|-0-0-0-0-0-0---0-0-0-0-0-0--0-0-0-0-0-0--5-5-5-5-5-5-5-5-5-5-5--------------------------------|

************************************

| h   Hammer-on
| p   Pull-off
| \   Slide down
| PM  Palm mute

************************************

            
            
Suggest correction
Creating personal tab
Creating personal tab
You can edit any tab online and save it as your Personal.

You can edit, replace or remove any tab part or add personal notes – all changes will be seen only by you.

Personal tabs can be accessed anytime from any device, even offline.
Learn more »
Give kudos to tab author, rate the tab!
1 2 3 4 5
comments
print report bad tab
guest
You may want to rate the tab now too:
select rating
Wanna post a correction for this tab? Suggest correction