Oops, an error
Loading. Please wait.

List Of Things tab

646 views 6 this week
no commentswrite comment
1 2 3 4 5
3 more votes to show rating
add to favorites
×
Save as Personal and add changes to this tab that will be seen only by you. Learn more ›
×
You can save this tab as Personal to edit and correct it or add notes. All changes will be seen only by you. Learn more »
launch autoscroll
font size
0
reset
how to read this tab
guitar tuner
edit
Autoscroll
slow
fast
+/-
esc
set tempo
stop
-------------------------------------------------------------------------------
                             LIST OF THINGS - Speak Low If You Speak Love
-------------------------------------------------------------------------------
Tabbed by: Billy Borus
E-mail: b.tothe2ndpower@yahoo.com

Tuning: Open C, but tune the bottom E string up to an F.

Not 100% accurate, but it's pretty darn close.  There's also no other tab for this song; so you're welcome.

3/4 Timing.

INTRO

F|----00---00---00---00-000000000-------------00---00---00---00--------------000000---|
C|----00---00---00---00-000000000---------------------------------00---------000000---|
G|----------------------555555444-4h5p4p0-------------------------00---------555444---|
C|-7h9--9p7--7h9--9p7---555555555----------7h9--9p7--7h9--9p7-----22-2h4p2p0-555555---|
G|-1010-1010-1010-1010--555555555----------1010-1010-1010-1010----55---------555555---|
C|------------------------------------------------------------------------------------|

VERSE 1

F|----00---00---00---00-000000000000-----00---00---00---00-0000000000-----------------|
C|----00---00---00---00-000000000000-----00---00---00---00-0000000000-----------------|
G|----------------------555555444444-----------------------5555544444-----------------|
C|-7h9--9p7--7h9--9p7---555555555555--7h9--9p7--7h9--9p7---5555555555-----------------|
G|-1010-1010-1010-1010--555555555555--1010-1010-1010-1010--5555555555-----------------|
C|------------------------------------------------------------------------------------|
"I'll get scared, and you'll get bored..."

CHORUS

F|-000000000000-000000-000000-000000000000-000000--x----------------------------------|
C|-000000000000-000000-000000-000000000000-000000--x----------------------------------|
G|-000000000000-000000-000000-000000000000-000000--x----------------------------------|
C|-555555555555-222222-222222-555555555555-222222--x----------------------------------|
G|-555555555555-222222-444444-555555555555-222222--x----------------------------------|
C|-555555555555---------------555555555555---------x----------------------------------|
"I don't know, anything..."                         "'Cause I won't let you."

INSTRUMENTAL

F|----00---00---00---00-000000000000------0000000000000000000000----------------------|
C|----00---00---00---00-000000000000------0000000000000000000000----------------------|
G|----------------------555555444444-(x3)-0000000000000055554444----------------------| 
C|-7h9--9p7--7h9--9p7---555555555555------0/222/444/555555555555----------------------|
G|-1010-1010-1010-1010--555555555555------0000000000000055555555----------------------|
C|------------------------------------------------------------------------------------|

VERSE 2

F|----00---00---00---00-000000000000-----00---00---00---00-0000000000-----------------|
C|----00---00---00---00-000000000000-----00---00---00---00-0000000000-----------------|
G|----------------------555555544444-----------------------5555544444-----------------|
C|-7h9--9p7--7h9--9p7---555555555555--7h9--9p7--7h9--9p7---5555555555-----------------|
G|-1010-1010-1010-1010--555555555555--1010-1010-1010-1010--5555555555-----------------|
C|------------------------------------------------------------------------------------|
"I knew you would leave..."

CHORUS

F|-0000000000000-000000-000000-000000000000-000000000000------------------------------|
C|-0000000000000-000000-000000-000000000000-000000000000------------------------------|
G|-0000000000000-000000-000000-000000000000-000000000000------------------------------|
C|-5555555555555-222222-222222-555555555555-222222222222------------------------------|
G|-5555555555555-222222-444444-555555555555-222222222222------------------------------|
C|-5555555555555---------------555555555555-------------------------------------------|
"I don't know, anything..."

BRIDGE

F|-000-000-000000------00000000-------------------------------------------------------|
C|-000-000-000000------00000000-------------------------------------------------------|
G|-000-000-555555-(x4)-00000000-------------------------------------------------------|
G|-999-777-555555------55555555-------------------------------------------------------|
C|-777-555-555555------55555555-------------------------------------------------------|
G|---------------------55555555-------------------------------------------------------|
"I'm usually on the other end..."

F|---------------------000000000000---------------------------------------------------|
C|-000-000-000000------000000000000---------------------------------------------------|
G|-000-000-555555-(x8)-000000555444---------------------------------------------------|
G|-999-777-555555------555555555555---------------------------------------------------|
C|-777-555-555555------000000000000---------------------------------------------------|
G|---------------------000000000000---------------------------------------------------|
"My mother says she's been praying..."

CHORUS

F|-0000000000000-000000-000000-000000000000-000000000000------------------------------|
C|-0000000000000-000000-000000-000000000000-000000000000------------------------------|
G|-0000000000000-000000-000000-000000000000-000000000000------------------------------|
C|-5555555555555-222222-222222-555555555555-222222222222------------------------------|
G|-5555555555555-222222-444444-555555555555-222222222222------------------------------|
C|-5555555555555---------------555555555555-------------------------------------------|

ENDING INSTRUMENTAL

F|-000-000-000000-000-000-000000----------------0-------------------------------------|
C|-000-000-000000-000-000-000000----------------0-------------------------------------|
G|-000-000-555444-000-000-000000------4h5p4p000-0-------------------------------------|
C|-999-777-555555-222-444-555555-(x4)-----------5-------------------------------------|
G|-777-555-555555-555-555-555555----------------5-------------------------------------|
C|----------------------------------------------5-------------------------------------|


************************************

| /   slide up
| \   slide down
| h   hammer-on
| p   pull-off
| ~   vibrato
| +   harmonic
| x   Mute note
| b   Bend
| pb  Pre-bend
| br  Bend release
| pbr Pre-bend release
| brb Bend release bend

************************************

            
            
Suggest correction
Creating personal tab
Creating personal tab
You can edit any tab online and save it as your Personal.

You can edit, replace or remove any tab part or add personal notes – all changes will be seen only by you.

Personal tabs can be accessed anytime from any device, even offline.
Learn more »
Give kudos to tab author, rate the tab!
1 2 3 4 5
comments
print report bad tab
guest
You may want to rate the tab now too:
select rating
Wanna post a correction for this tab? Suggest correction