Oops, an error
Loading. Please wait.

Shwetas New Trick Tab

1 view 1 this week
no commentswrite comment
1 2 3 4 5
3 more votes to show rating
add to favorites
launch autoscroll
font size
0
reset
how to read this tab
guitar tuner
Autoscroll
slow
fast
+/-
esc
set tempo
stop
Help us to improve Ultimate-Guitar.com Take our survey!
×
Author
Difficulty
Tuning
novice
D A D G B E
Play along to the track here: soundcloud.com/special-thing ----> "Shweta's New Trick"
Listen to more Special Thing and Maunikita here: soundcloud.com/special-thing
                                                 soundcloud.com/maunikita


[Intro/Verse]

e|---------------------------------------------------------------------------|
B|---------------------------------------------------------------------------|
G|---------------------------------------------------------------------------|
D|---------------------------------------------------------------------------|
A|--0------5--------2-----1/------7------------------------------------------|
D|0---0/5-----5\2------1------7------7---------------------------------------|


[Pre-Chorus]

e|---------------------------------------------------------------------------|
B|---------------------------------------------------------------------------|
G|---------------------------------------------------------------------------|
D|--0------0-------0------0-------0------------------------------------------|
A|---------------------------------------------------------------------------|
D|0---0/5-----5\2------1------7------7---------------------------------------|
  "...Like Racheal and Harry, and Bobby and Melinda Moore..."


[Chorus]

e|---------------------------------------------------------------------------|
B|---------------------------------------------------------------------------|
G|---------------------------------------------------------------------------|
D|---------------------------------------------------------------------------|
A|--0------5--------2-----1/------7------------------------------------------|
D|0---0/5-----5\2------1------7------7---------------------------------------|

       "Shweta's new trick, c'mon..."


[Breakdown pt.1]

e|---------------------------------------------------------------------------|
B|---------------------------------------------------------------------------|
G|---------------------------------------------------------------------------|
D|---------------------------------------------------------------------------|
A|0-0----5-5----2-2-1-1/-7-7-------------------------------------------------|
D|0-0----5-5----2-2-1-1/-7-7-------------------------------------------------|

  "One, two...."


[Breakdown pt.2] (make sure to listen to the strumming pattern closely here)

e|---------------------------------------------------------------------------|
B|---------------------------------------------------------------------------|
G|---------------------------------------------------------------------------|
D|---------------------------------------------------------------------------|
A|0-0-0-00--5-5-5-55--2-2-1-1/-7-7-7-77--------------------------------------|
D|0-0-0-00--5-5-5-55--2-2-1-1/-7-7-7-77--------------------------------------|


[Breakdown pt.3] (palm muted)

e|---------------------------------------------------------------------------|
B|---------------------------------------------------------------------------|
G|---------------------------------------------------------------------------|
D|---------------------------------------------------------------------------|
A|0-0-0-0--5-5-5-5--2-2-1-1/-7-7-7-------------------------------------------|
D|0-0-0-0--5-5-5-5--2-2-1-1/-7-7-7-------------------------------------------|


[Intense Pre-Chorus] (strum as loud as possible)

e|---------------------------------------------------------------------------|
B|---------------------------------------------------------------------------|
G|---------------------------------------------------------------------------|
D|---------------------------------------------------------------------------|
A|0-0-0-0--5-5-5-5--2-2-1-1/-7-7-7-------------------------------------------|
D|0-0-0-0--5-5-5-5--2-2-1-1/-7-7-7-------------------------------------------|
  "...Like Racheal and Harry, and Bobby and Melinda Moore!!111"


Intro X2
Verse X4
Pre-Chorus X4
Chorus X2
Verse X4
Pre-Chorus X4
Chorus X2
Breakdown Pt.1 X4
Breakdown Pt.2 X6
Intense Pre-Chorus X4
Pre-Chorus X2
Breakdown Pt.3 X3


************************************

| /  Slide up
| \  Slide down

************************************
Suggest correction
Give kudos to tab author, rate the tab!
1 2 3 4 5
comments
print report bad tab
guest
You may want to rate the tab now too:
select rating
Wanna post a correction for this tab? Suggest correction