Oops, an error
Loading. Please wait.

Tenner Bass Tab

10 views 1 this week
no commentswrite comment
1 2 3 4 5
3 more votes to show rating
add to favorites
launch autoscroll
font size
0
reset
guitar tuner
Autoscroll
slow
fast
+/-
esc
set tempo
stop
Help us to improve Ultimate-Guitar.com Take our survey!
×
Author
Difficulty
novice
Intro

G|---------------------------------------------------------------------------|
D|---7---------7-6-5---------------------------------------------------------|
A|------0--0----------7--7-7-\5-5---3-5-7--7-7---7--7--7--7--7--7------------|
E|---------------------------------------------------------------------------|

[Verse]

G|---------------------------------------------------------------------------|
D|---7---------7-6-5---------------------------------------------------------|
A|------0--0----------7--7-7-\5-5---3-5-7--7-7---7--7--7--7--7--7------------|
E|---------------------------------------------------------------------------|

[Chorus]

G|---------------------------------------------------------------------------|
D|---7---------7-6-5---------------------------------------------------------|
A|------0--0----------7--7-7-\5-5---3-5-7--7-7---7--7--7--7--7--7------------|
E|---------------------------------------------------------------------------|

[2:44-3:00]
G|---------------------------------------------------------------------------|
D|---------------------------------------------------------------------------|
A|---------------------------------------------------------------------------|
E|----5-----5-----5-----5-----5-----5-----5-----5-----5-----5-----5----------|

************************************
| \   Slide down
Suggest correction
Give kudos to tab author, rate the tab!
1 2 3 4 5
comments
print report bad tab
guest
You may want to rate the tab now too:
select rating
Wanna post a correction for this tab? Suggest correction