Oops, an error
Loading. Please wait.

Fun tab

118 views 1 this week
no commentswrite comment
1 2 3 4 5
3 more votes to show rating
add to favorites
×
Save as Personal and add changes to this tab that will be seen only by you. Learn more ›
×
You can save this tab as Personal to edit and correct it or add notes. All changes will be seen only by you. Learn more »
launch autoscroll
font size
0
reset
how to read this tab
guitar tuner
edit
Autoscroll
slow
fast
+/-
esc
set tempo
stop
Author
Difficulty
About this tab version
Only contains Sadie's guitar, Matt's part varies slightly. Was this info helpful? Yes No
Guitar left: Sadie
Guitar right: Matt

[Intro/Verse]
                                    (Bend 1/4)
E |----------------------------|----------------------------|
B |----------------------------|----------------------------|
G |----------------------------|----------------------------|
D |--------11-------12---------|--------------------12------| x6
A |-----11-------12----0-------|--12----12b------12---------|
E |--0--------0-----------10---|--------------10------------|

[Bridge]
E |----------------------------|----------------------------|
B |----------------------------|----------------------------|
G |--------------2--------0----|--0--0--0--0--0--0--0--0----|
D |--2--2--2-----2--------5----|--5--5--5--5--5--5--5--5----|
A |--2--2--2-----2--------4----|--4--4--4--4--4--4--4--4----|
E |--4--4--4-----0--------5----|--5--5--5--5--5--5--5--5----|

E |----------------------------|----------------------------|
B |----------------------------|----------------------------|
G |----------------------------|----------------------------|
D |-----------11-------12------|-----------------------12---| x3
A |--------11-------12----0----|-----12----12b------12------|
E |-----0--------0-------------|--10-------------10---------|

E |----------------------------|----------------------------|
B |----------------------------|----------------------------|
G |----------------------------|----------------------------|
D |-----------11-------12------|-----------------12-12-x----|
A |--------11-------12----0----|-----12----12b---12-12-x----|
E |-----0--------0-------------|--10-------------10-10-x----|

E |----------------------------|----------------------------|
B |----------------------------|----------------------------|
G |--------------2--------0----|--0--0--0--0--0--0--0--0----|
D |--2--2--2-----2--------5----|--5--5--5--5--5--5--5--5----|
A |--2--2--2-----2--------4----|--4--4--4--4--4--4--4--4----|
E |--4--4--4-----0--------5----|--5--5--5--5--5--5--5--5----|

E |----------------------------|----------------------------|
B |----------------------------|----------------------------|
G |----------------------------|----------------------------|
D |-----------11-------12------|-----------------------12---| 
A |--------11-------12----0----|-----12----12b------12------|
E |-----0--------0-------------|--10-------------10---------|

E |----------------------------|----------------------------|
B |----------------------------|----------------------------|
G |----------------------------|----------------------------|
D |-----------11-------12------|-----------------12-12-x----|
A |--------11-------12----0----|-----12----12b---12-12-x----|
E |-----0--------0-------------|--10-------------10-10-x----|

E |----------------------------|----------------------------|
B |----------------------------|----------------------------|
G |--------------2--------0----|--0--0--0--0--0--0--0--0----|
D |--2--2--2-----2--------5----|--5--5--5--5--5--5--5--5----|
A |--2--2--2-----2--------4----|--4--4--4--4--4--4--4--4----|
E |--4--4--4-----0--------5----|--5--5--5--5--5--5--5--5----|

E |----------------------------|------|
B |----------------------------|------|
G |----------------------------|------|
D |-----------11-------12------|------|
A |--------11-------12----0----|------|
E |-----0--------0-------------|--10--|

[Chorus]
E |----------------------|----------------------------|
B |-----2p-0-------------|--2--2--2-------------------|
G |-----------2-----2----|--3--3--3-------------------|
D |-----------------2----|--4--4--4----/6--6--7--7----|
A |-----------------2----|--4--4--4-------------------|
E |-----------------0----|--2--2--2-------------------|

E |----------------------------|----------------------------|
B |----------------------------|-----------2p-0-------------|
G |--------6-----------6-------|-----------------2-----2----|
D |--7--7-----7-----------7----|--------6/-------------2----|
A |--------------6--6----------|--5--5-----------------2----|
E |----------------------------|-----------------------0----|

E |----------------------------|----------------------------|
B |-----------0--0--0--2--2----|--2--2--2--2--2--2--2--2----|
G |--2--2--2--1--1--1--3--3----|--3--3--3--3--3--3--3--3----|
D |--2--2--2--2--2--2--4--4----|--4--4--4--4--4--4--4--4----|
A |--2--2--2--2--2--2--4--4----|--4--4--4--4--4--4--4--4----|
E |--0--0--0--0--0--0--2--2----|--2--2--2--2--2--2--2--2----|

E |----------------------------|----------------------------|
B |--3--3--3--3--2--2--2--2----|--3--3--3--3--2--2--2--2----|
G |--4--4--4--4--3--3--3--3----|--4--4--4--4--3--3--3--3----|
D |--5--5--5--5--4--4--4--4----|--5--5--5--5--4--4--4--4----|
A |--5--5--5--5--4--4--4--4----|--5--5--5--5--4--4--4--4----|
E |--3--3--3--3--2--2--2--2----|--3--3--3--3--2--2--2--2----|

E |----------------------------|----------------------------|
B |--3--3--3--3--3--0--3--0----|--3--0--3--0--3--0--3--0----|
G |--4--4--4--4--4--4--4--4----|--4--4--4--4--4--4--4--4----|
D |--5--5--5--5--5--5--5--5----|--5--5--5--5--5--5--5--5----|
A |--5--5--5--5--5--5--5--5----|--5--5--5--5--5--5--5--5----|
E |--3--3--3--3--3--0--3--0----|--3--0--3--0--3--0--3--0----|

[Bridge]
E |----------------------------|----------------------------|
B |----------------------------|----------------------------|
G |--------------2--------0----|--0--0--0--0--0--0--0--0----|
D |--2--2--2-----2--------5----|--5--5--5--5--5--5--5--5----|
A |--2--2--2-----2--------4----|--4--4--4--4--4--4--4--4----|
E |--4--4--4-----0--------5----|--5--5--5--5--5--5--5--5----|

E |----------------------------|----------------------------|
B |----------------------------|----------------------------|
G |----------------------------|----------------------------|
D |-----------11-------12------|-----------------------12---| x3
A |--------11-------12----0----|-----12----12b------12------|
E |-----0--------0-------------|--10-------------10---------|

E |----------------------------|----------------------------|
B |----------------------------|----------------------------|
G |----------------------------|----------------------------|
D |-----------11-------12------|-----------------12-12-x----|
A |--------11-------12----0----|-----12----12b---12-12-x----|
E |-----0--------0-------------|--10-------------10-10-x----|

E |----------------------------|----------------------------|
B |----------------------------|----------------------------|
G |--------------2--------0----|--0--0--0--0--0--0--0--0----|
D |--2--2--2-----2--------5----|--5--5--5--5--5--5--5--5----|
A |--2--2--2-----2--------4----|--4--4--4--4--4--4--4--4----|
E |--4--4--4-----0--------5----|--5--5--5--5--5--5--5--5----|

E |----------------------------|----------------------------|
B |----------------------------|----------------------------|
G |----------------------------|----------------------------|
D |-----------11-------12------|-----------------------12---| 
A |--------11-------12----0----|-----12----12b------12------|
E |-----0--------0-------------|--10-------------10---------|

E |----------------------------|----------------------------|
B |----------------------------|----------------------------|
G |----------------------------|----------------------------|
D |-----------11-------12------|-----------------12-12-x----|
A |--------11-------12----0----|-----12----12b---12-12-x----|
E |-----0--------0-------------|--10-------------10-10-x----|

E |----------------------------|----------------------------|
B |----------------------------|----------------------------|
G |--------------2--------0----|--0--0--0--0--0--0--0--0----|
D |--2--2--2-----2--------5----|--5--5--5--5--5--5--5--5----|
A |--2--2--2-----2--------4----|--4--4--4--4--4--4--4--4----|
E |--4--4--4-----0--------5----|--5--5--5--5--5--5--5--5----|

E |----------------------------|------|
B |----------------------------|------|
G |----------------------------|------|
D |-----------11-------12------|------|
A |--------11-------12----0----|------|
E |-----0--------0-------------|--10--|

[Chorus]
E |----------------------|----------------------------|
B |-----2p-0-------------|--2--2--2-------------------|
G |-----------2-----2----|--3--3--3-------------------|
D |-----------------2----|--4--4--4----/6--6--7--7----|
A |-----------------2----|--4--4--4-------------------|
E |-----------------0----|--2--2--2-------------------|

E |----------------------------|----------------------------|
B |----------------------------|-----------2p-0-------------|
G |--------6-----------6-------|-----------------2-----2----|
D |--7--7-----7-----------7----|--------6/-------------2----|
A |--------------6--6----------|--5--5-----------------2----|
E |----------------------------|-----------------------0----|

E |----------------------------|----------------------------|
B |-----------0--0--0--2--2----|--2--2--2--2--2--2--2--2----|
G |--2--2--2--1--1--1--3--3----|--3--3--3--3--3--3--3--3----|
D |--2--2--2--2--2--2--4--4----|--4--4--4--4--4--4--4--4----|
A |--2--2--2--2--2--2--4--4----|--4--4--4--4--4--4--4--4----|
E |--0--0--0--0--0--0--2--2----|--2--2--2--2--2--2--2--2----|

E |----------------------------|----------------------------|
B |--3--3--3--3--2--2--2--2----|--3--3--3--3--2--2--2--2----|
G |--4--4--4--4--3--3--3--3----|--4--4--4--4--3--3--3--3----|
D |--5--5--5--5--4--4--4--4----|--5--5--5--5--4--4--4--4----|
A |--5--5--5--5--4--4--4--4----|--5--5--5--5--4--4--4--4----|
E |--3--3--3--3--2--2--2--2----|--3--3--3--3--2--2--2--2----|

E |----------------------------|----------------------------|
B |--3--3--3--3--3--0--3--0----|--3--0--3--0--3--0--3--0----|
G |--4--4--4--4--4--4--4--4----|--4--4--4--4--4--4--4--4----|
D |--5--5--5--5--5--5--5--5----|--5--5--5--5--5--5--5--5----|
A |--5--5--5--5--5--5--5--5----|--5--5--5--5--5--5--5--5----|
E |--3--3--3--3--3--0--3--0----|--3--0--3--0--3--0--3--0----|

[Outro]
E |----------------------------|----------------------------|
B |----------------------------|----------------------------|
G |----------------------------|----------------------------|
D |-----------11-------12------|-----------------------12---| x8 
A |--------11-------12----0----|-----12----12b------12------|
E |-----0--------0-------------|--10-------------10---------|

************************************
Legend

| b  bend
| /  slide
| h  Hammer-on
| p  Pull-off
| x  Dead note

************************************
Suggest correction
Creating personal tab
Creating personal tab
You can edit any tab online and save it as your Personal.

You can edit, replace or remove any tab part or add personal notes – all changes will be seen only by you.

Personal tabs can be accessed anytime from any device, even offline.
Learn more »
Give kudos to tab author, rate the tab!
1 2 3 4 5
comments
print report bad tab
guest
You may want to rate the tab now too:
select rating
Wanna post a correction for this tab? Suggest correction