Oops, an error
Loading. Please wait.

Pioneer Spine Tab

28 views 9 this week
no commentswrite comment
1 2 3 4 5
3 more votes to show rating
add to favorites
launch autoscroll
font size
0
reset
how to read this tab
guitar tuner
Autoscroll
slow
fast
+/-
esc
set tempo
stop
Help us to improve Ultimate-Guitar.com Take our survey!
×
Author
Difficulty
Tuning
intermediate
D A D G B E
About this tab version
This is the first version without matt. Was this info helpful? Yes No
Drop D
Guitar left: Sadie
Guitar right: Matt

[Intro](Matt)
e|--<7>------------------------------------|
B|-------<7>-----------------<7>-----------|
G|----------------------<7>----------------| (x8)
D|------------<7>-----------------<7>------|
A|-------------------------------------<7>-|
E|-----------------<9>---------------------|

[Verse 1]
e|----------------------------|----------------------------|
B|----------------------------|----------------------------|
G|--7/6---6-----------6-------|--------6-----------6-------| (x4)
D|----------------------------|----------------------------|
A|--5/4---5-----------5-------|--------4-----------4-------|
D|--------4-----4--4--4-------|--5--5--5-----5--5--5-------|

[Bridge 1]
e|----------------------------|----------------------------|
B|----------------------------|----------------------------|
G|--4p-3h-4-----2--0--2--0----|-----4p-3h-4-----2p-0-------|
D|----------------------------|----------------------------|
A|--2--2--2-----3--3--3--3----|-----2--2--2-----3--3-------|
D|----------------------------|----------------------------|

e|----------------------------|----------------------------|
B|----------------------------|----------------------------|
G|--4p-3h-4-----2p-0--2p-0----|----------------------------|
D|----------------------------|----------------------------|
A|--2--2--2-----3--3--3--3----|-----2--2--4--4--5--5-------|
D|----------------------------|--4--------------------5----|

e|----------------------------|----------------------------|
B|----------------------------|--------7-------------------|
G|----------------------------|-----------7-----2-----3----|
D|----------------------------|-----4--------/4----5-------|
A|--5--4--2--0----------------|----------------------------|
D|--------------5-------------|--4-------------------------|

e|----------------------------------------------------|
B|--------------7-------------------------------------|
G|--------------------7-----------------------12------|
D|--------4-----------------7/11--11----12------------|
A|----------------------------------------------------|
D|--4-------------------------------------------------|

e|----------------------------|----------------|
B|--------7-------------------|--------7-------|
G|-----------7-----2-----3----|-----------7----|
D|-----4--------/4----5-------|-----4----------|
A|----------------------------|----------------|
D|--4-------------------------|--4-------------|

[Verse 2]
e|----------------------------|----------------------------|
B|----------------------------|----------------------------|
G|--7/6---6-----------6-------|--------6-----------6-------| (x4)
D|----------------------------|----------------------------|
A|--5/4---5-----------5-------|--------4-----------4-------|
D|--------4-----4--4--4-------|--5--5--5-----5--5--5-------|

[Bridge 2]
(same as bridge 1 except for the last bar)
e|----------------------------|----------------------------|
B|----------------------------|----------------------------|
G|--4p-3h-4-----2--0--2--0----|-----4p-3h-4-----2p-0-------|
D|----------------------------|----------------------------|
A|--2--2--2-----3--3--3--3----|-----2--2--2-----3--3-------|
D|----------------------------|----------------------------|

e|----------------------------|----------------------------|
B|----------------------------|----------------------------|
G|--4p-3h-4-----2p-0--2p-0----|----------------------------|
D|----------------------------|----------------------------|
A|--2--2--2-----3--3--3--3----|-----2--2--4--4--5--5-------|
D|----------------------------|--4--------------------5----|

e|----------------------------|----------------------------|
B|----------------------------|--------7-------------------|
G|----------------------------|-----------7-----2-----3----|
D|----------------------------|-----4--------/4----5-------|
A|--5--4--2--0----------------|----------------------------|
D|--------------5-------------|--4-------------------------|

e|----------------------------------------------------|
B|--------------7-------------------------------------|
G|--------------------7-----------------------12------|
D|--------4-----------------7/11--11----12------------|
A|----------------------------------------------------|
D|--4-------------------------------------------------|

e|----------------------------|----------------------------|
B|--------7-------------------|--------7--------7-----8----|
G|-----------7-----2-----3----|-----------7--7-----6-------|
D|-----4--------/4----5-------|-----4----------------------|
A|----------------------------|----------------------------|
D|--4-------------------------|--4-------------------------|

[Chorus 1]
e|----------------------------|----------------------------|
B|----------------------------|----------------------------|
G|----------------------------|----------------------------|
D|----------------------------|----------------------------|
A|--0--0--0--0--7--7--7--7----|--7--7--7--7--x--7--7--7----|
D|--7--7--7--7--6--6--6--6----|--5--5--5--5--x--5--5--5----|

e|----------------------------|----------------------------|
B|----------------------------|----------------------------|
G|----------------------------|----------------------------|
D|----------------------------|----------------------------|
A|--0--0--0--0--7--7--7--7----|--7--7--7--7--x--7--7--7----|
D|--7--7--7--7--6--6--6--6----|--5--5--5--5--x--5--5--5----|

e|----------------------------|----------------------------|
B|----------------------------|----------------------------|
G|----------------------------|----------------------------|
D|----------------------------|----------------------------|
A|--0--0--0--0--7--7--7--7----|--9--9--9--9--9--9--9--9----|
D|--7--7--7--7--8--8--8--8----|--9--9--9--9--9--9--9--9----|

e|----------------------------|----------------------------|
B|----------------------------|----------------------------|
G|----------------------------|----------------------------|
D|----------------------------|----------------------------|
A|--x--9--9--9--x--9--9--9----|-----2--2--4--4--5--5-------|
D|--x--9--9--9--x--9--9--9----|--4--------------------5----|

e|----------------------------|
B|----------------------------|
G|----------------------------|
D|----------------------------|
A|--5--4--2--0----------------|
D|--------------5-------------|

[Verse 3]
e|----------------------------|----------------------------|
B|----------------------------|----------------------------|
G|--7/6---6-----------6-------|--------6-----------6-------| (x4)
D|----------------------------|----------------------------|
A|--5/4---5-----------5-------|--------4-----------4-------|
D|--------4-----4--4--4-------|--5--5--5-----5--5--5-------|

[Bridge 3]
(same as bridge 2)
e|----------------------------|----------------------------|
B|----------------------------|----------------------------|
G|--4p-3h-4-----2--0--2--0----|-----4p-3h-4-----2p-0-------|
D|----------------------------|----------------------------|
A|--2--2--2-----3--3--3--3----|-----2--2--2-----3--3-------|
D|----------------------------|----------------------------|

e|----------------------------|----------------------------|
B|----------------------------|----------------------------|
G|--4p-3h-4-----2p-0--2p-0----|----------------------------|
D|----------------------------|----------------------------|
A|--2--2--2-----3--3--3--3----|-----2--2--4--4--5--5-------|
D|----------------------------|--4--------------------5----|

e|----------------------------|----------------------------|
B|----------------------------|--------7-------------------|
G|----------------------------|-----------7-----2-----3----|
D|----------------------------|-----4--------/4----5-------|
A|--5--4--2--0----------------|----------------------------|
D|--------------5-------------|--4-------------------------|

e|----------------------------------------------------|
B|--------------7-------------------------------------|
G|--------------------7-----------------------12------|
D|--------4-----------------7/11--11----12------------|
A|----------------------------------------------------|
D|--4-------------------------------------------------|

e|----------------------------|----------------------------|
B|--------7-------------------|--------7--------7-----8----|
G|-----------7-----2-----3----|-----------7--7-----6-------|
D|-----4--------/4----5-------|-----4----------------------|
A|----------------------------|----------------------------|
D|--4-------------------------|--4-------------------------|

[Chorus 2]
e|----------------------------|----------------------------|
B|----------------------------|----------------------------|
G|----------------------------|----------------------------|
D|----------------------------|----------------------------|
A|--0--0--0--0--7--7--7--7----|--7--7--7--7--x--7--7--7----|
D|--7--7--7--7--6--6--6--6----|--5--5--5--5--x--5--5--5----|

e|----------------------------|----------------------------|
B|----------------------------|----------------------------|
G|----------------------------|----------------------------|
D|----------------------------|----------------------------|
A|--0--0--0--0--7--7--7--7----|--7--7--7--7--x--7--7--7----|
D|--7--7--7--7--6--6--6--6----|--5--5--5--5--x--5--5--5----|

e|----------------------------|----------------------------|
B|----------------------------|----------------------------|
G|----------------------------|----------------------------|
D|----------------------------|----------------------------|
A|--0--0--0--0--7--7--7--7----|--9--9--9--9--9--9--9--9----|
D|--7--7--7--7--8--8--8--8----|--9--9--9--9--9--9--9--9----|

e|----------------------------|----------------------------|
B|----------------------------|----------------------------|
G|----------------------------|----------------------------|
D|----------------------------|----------------------------|
A|--0--0--0--0--7--7--7--7----|--7--7--7--7--x--7--7--7----|
D|--7--7--7--7--6--6--6--6----|--5--5--5--5--x--5--5--5----|

e|----------------------------|----------------------------|
B|----------------------------|----------------------------|
G|----------------------------|----------------------------|
D|----------------------------|----------------------------|
A|--0--0--0--0--7--7--7--7----|--7--7--7--7--x--7--7--7----|
D|--7--7--7--7--6--6--6--6----|--5--5--5--5--x--5--5--5----|

e|----------------------------|----------------------------|
B|----------------------------|----------------------------|
G|----------------------------|----------------------------|
D|----------------------------|----------------------------|
A|--0--0--0--0--7--7--7--7----|--9--9--9--9--9--9--9--9----|
D|--7--7--7--7--8--8--8--8----|--9--9--9--9--9--9--9--9----|

e|----------------------------|----------------------------|
B|----------------------------|----------------------------|
G|----------------------------|----------------------------|
D|----------------------------|----------------------------|
A|--x--9--9--9--x--9--9--9----|-----2--2--4--4--5--5-------|
D|--x--9--9--9--x--9--9--9----|--4--------------------5----|

e|----------------------------|
B|----------------------------|
G|----------------------------|
D|----------------------------|
A|--5--4--2--0----------------|
D|--------------5-------------|


************************************

| /  Slide up
| h  Hammer-on
| p  Pull-off
| x  Dead note

************************************
Suggest correction
Give kudos to tab author, rate the tab!
1 2 3 4 5
comments
print report bad tab
guest
You may want to rate the tab now too:
select rating
Wanna post a correction for this tab? Suggest correction