Oops, an error
Loading. Please wait.

Raising The Skate tab

version 2
version 2

Whole song

250 views 15 this week
no commentswrite comment
1 2 3 4 5
2 more votes to show rating
add to favorites
×
Save as Personal and add changes to this tab that will be seen only by you. Learn more ›
×
You can save this tab as Personal to edit and correct it or add notes. All changes will be seen only by you. Learn more »
launch autoscroll
font size
0
reset
how to read this tab
guitar tuner
edit
Autoscroll
slow
fast
+/-
esc
set tempo
stop
Author
Difficulty
[Intro]
e|-------------------------|--------------------|
B|-----------------------9-|-10-------------9r--|
G|-----10----------10-12---|----10--------7-----| 
D|--------10-10-11---------|-------10-9-8-------| (x3)
A|-/12---------------------|--------------------|
E|-------------------------|--------------------|

e|-------------------------|--------------------------|---------------|
B|-----------------------9-|-10-----------------------|---------------|
G|-----10----------10-12---|----10---------7------5---|---------------|
D|--------10-10-11---------|-------10-9--8---8--6---6-|-3-3-3-3-3-3-3-| 
A|-/12---------------------|--------------------------|-3-3-3-3-3-3-3-|
E|-------------------------|--------------------------|-1-1-1-1-1-1-1-|

[Verse]
e|-------------------------|-------------------------|
B|-------------------------|-------------------------|
G|-2/5--5/6---6----3---3-2-|-2/5---8\7---7----7-7--7-|
D|----------6---6----3-----|-----------8---8--8-8--8-|
A|-------------------------|-------------------------|
E|-------------------------|-------------------------|

e|-------------------------|-------------------------|
B|-------------------------|-------------------------|
G|-2/5--5/6---6----3---3-2-|-2/5---8\7---7---6---6---|
D|----------6---6----3-----|-----------8---8---8---8-|
A|-------------------------|-------------------------|
E|-------------------------|-------------------------|

[Transition A]
e|-------------|-------------|
B|-------------|-------------|
G|-13-------13-|-11-------11-|
D|----13-------|----11-------| (x3)
A|-------15----|-------13----|
E|-------------|-------------|

[Chorus]
e|-------------------------|-------------------------|-------------------------|-------------------|
B|-----------------------9-|-----------------------9-|-----------------------9-|-10-------------9r-|
G|-----10----------10-12---|-----10----------10-12---|-----10----------10-12---|----10--------7----|
D|--------10-10-11---------|--------10-10-11---------|--------10-10-11---------|-------10-9-8------| 
A|-/12---------------------|-/12---------------------|-/12---------------------|-------------------|
E|-------------------------|-------------------------|-------------------------|-------------------|

e|-------------------------|-------------------------|-----------------------|------------------------|
B|-----------------------9-|-----------------------9-|-10v-----------------9-|-10---------------------|
G|-----10----------10-12---|-----10----------10-12---|-----10v-------10-12---|=---10--------7-----5---| 
D|--------10-10-11---------|--------10-10-11---------|---------10-11---------|=------10-9-8---8-6---6-|
A|-/12---------------------|-/12---------------------|-----------------------|------------------------|
E|-------------------------|-------------------------|-----------------------|------------------------|

[Post-Chorus]
e|-------------------|-------------------|-------------------|-------------------|
B|-------------------|-------------------|-------------------|-------------------|
G|----------6-6-6-x--|----------6-6-6-x--|----------6-6-6-x--|----------7\5--5-5-|
D|-3-3-3-x--6-6-6-x--|-3-3-3-x--4-4-4-x--|-3-3-3-x--4-4-4-x--|-3-3-3-x--8\6-=6-6-|
A|-3-3-3-x--4-4-4-x--|-3-3-3-x--4-4-4-x--|-3-3-3-x--4-4-4-x--|-3-3-3-x-----------|
E|-1-1-1-x-----------|-1-1-1-x-----------|-1-1-1-x-----------|-1-1-1-x-----------|

[Transition A Variation]
e|-------------|----------|
B|-------------|----------|
G|-13-------13-|-11----11-|
D|----13-------|----11----| (x3)
A|-------15----|----------|
E|-------------|----------|

[Verse]
e|-------------------------|-------------------------|
B|-------------------------|-------------------------|
G|-2/5--5/6---6----3---3-2-|-2/5---8\7---7----7-7--7-|
D|----------6---6----3-----|-----------8---8--8-8--8-|
A|-------------------------|-------------------------|
E|-------------------------|-------------------------|

e|-------------------------|-------------------------|
B|-------------------------|-------------------------|
G|-2/5--5/6---6----3---3-2-|-2/5---8\7---7---6---6---|
D|----------6---6----3-----|-----------8---8---8---8-|
A|-------------------------|-------------------------|
E|-------------------------|-------------------------|

[Chorus]
e|-------------------------|-------------------------|-------------------------|-------------------|
B|-----------------------9-|-----------------------9-|-----------------------9-|-10-------------9r-|
G|-----10----------10-12---|-----10----------10-12---|-----10----------10-12---|----10--------7----|
D|--------10-10-11---------|--------10-10-11---------|--------10-10-11---------|-------10-9-8------| 
A|-/12---------------------|-/12---------------------|-/12---------------------|-------------------|
E|-------------------------|-------------------------|-------------------------|-------------------|

e|-------------------------|-------------------------|-----------------------|------------------------|
B|-----------------------9-|-----------------------9-|-10v-----------------9-|-10---------------------|
G|-----10----------10-12---|-----10----------10-12---|-----10v-------10-12---|=---10--------7-----5---| 
D|--------10-10-11---------|--------10-10-11---------|---------10-11---------|=------10-9-8---8-6---6-|
A|-/12---------------------|-/12---------------------|-----------------------|------------------------|
E|-------------------------|-------------------------|-----------------------|------------------------|

[Post-Chorus]
e|-------------------|-------------------|-------------------|-------------------|
B|-------------------|-------------------|-------------------|-------------------|
G|----------6-6-6-x--|----------6-6-6-x--|----------6-6-6-x--|----------7\5--5-5-|
D|-3-3-3-x--6-6-6-x--|-3-3-3-x--4-4-4-x--|-3-3-3-x--4-4-4-x--|-3-3-3-x--8\6-=6-6-| (x2)
A|-3-3-3-x--4-4-4-x--|-3-3-3-x--4-4-4-x--|-3-3-3-x--4-4-4-x--|-3-3-3-x-----------|
E|-1-1-1-x-----------|-1-1-1-x-----------|-1-1-1-x-----------|-1-1-1-x-----------|

[Solo/Breakdown]
e|---------------|------------------|------------------|------------------|---------------|
B|---------------|------------------|------------------|------------------|---------------|
G|---------------|------------------|------------------|------------------|---------------|
D|-4-4-4-4-4-4-4-|-6-6-6-6--4-4-4-4-|-6-6-6-6--4-4-4-4-|-6-6-6-6--4-4-4-4-|-3-3-3-3-3-3-3-|
A|-4-4-4-4-4-4-4-|-6-6-6-6--4-4-4-4-|-6-6-6-6--4-4-4-4-|-6-6-6-6--4-4-4-4-|-3-3-3-3-3-3-3-|
E|-2-2-2-2-2-2-2-|-4-4-4-4--2-2-2-2-|-4-4-4-4--2-2-2-2-|-4-4-4-4--2-2-2-2-|-1-1-1-1-1-1-1-|

[Transition A Variation]
e|-------------|----------|
B|-------------|----------|
G|-13-------13-|-11----11-|
D|----13-------|----11----| (x3)
A|-------15----|----------|
E|-------------|----------|

[Bridge]
e|--------------------------|----------------------|------------------|------------------|
B|--------------9--9--9--9--|-10-10-10-10--9-9-9-9-|-6-6-6-6--6-6-6-6-|-4-4-4-4--9-9-9-9-|
G|-10-10-10-10--10-10-10-10-|-10-10-10-10--7-7-7-7-|-5-5-5-5--4-4-4-4-|-4-4-4-4--7-7-7-7-|
D|-10-10-10-10--11-11-11-11-|-10-10-10-10--8-8-8-8-|-6-6-6-6--5-5-5-5-|-6-6-6-6--8-8-8-8-| (x2)
A|-12-12-12-12--------------|----------------------|------------------|------------------|
E|-------------=------------|----------------------|------------------|------------------|

[Chorus]
e|-------------------------|-------------------------|-------------------------|-------------------|
B|-----------------------9-|-----------------------9-|-----------------------9-|-10-------------9r-|
G|-----10----------10-12---|-----10----------10-12---|-----10----------10-12---|----10--------7----|
D|--------10-10-11---------|--------10-10-11---------|--------10-10-11---------|-------10-9-8------| 
A|-/12---------------------|-/12---------------------|-/12---------------------|-------------------|
E|-------------------------|-------------------------|-------------------------|-------------------|

e|-------------------------|-------------------------|-----------------------|------------------------|
B|-----------------------9-|-----------------------9-|-10v-----------------9-|-10---------------------|
G|-----10----------10-12---|-----10----------10-12---|-----10v-------10-12---|=---10--------7-----5---| 
D|--------10-10-11---------|--------10-10-11---------|---------10-11---------|=------10-9-8---8-6---6-|
A|-/12---------------------|-/12---------------------|-----------------------|------------------------|
E|-------------------------|-------------------------|-----------------------|------------------------|

[Post-Chorus]
e|-------------------|-------------------|-------------------|-------------------|
B|-------------------|-------------------|-------------------|-------------------|
G|----------6-6-6-x--|----------6-6-6-x--|----------6-6-6-x--|----------7\5--5-5-|
D|-3-3-3-x--6-6-6-x--|-3-3-3-x--4-4-4-x--|-3-3-3-x--4-4-4-x--|-3-3-3-x--8\6-=6-6-| (x3)
A|-3-3-3-x--4-4-4-x--|-3-3-3-x--4-4-4-x--|-3-3-3-x--4-4-4-x--|-3-3-3-x-----------| 
E|-1-1-1-x-----------|-1-1-1-x-----------|-1-1-1-x-----------|-1-1-1-x-----------|


************************************

| r  Release
| /  Slide up
| \  Slide down
| x  Dead note

************************************
Suggest correction
Creating personal tab
Creating personal tab
You can edit any tab online and save it as your Personal.

You can edit, replace or remove any tab part or add personal notes – all changes will be seen only by you.

Personal tabs can be accessed anytime from any device, even offline.
Learn more »
Give kudos to tab author, rate the tab!
1 2 3 4 5
comments
print report bad tab
guest
You may want to rate the tab now too:
select rating
Wanna post a correction for this tab? Suggest correction