Oops, an error
Loading. Please wait.

Stop Bass Tab

1,627 views 3 this week
no commentswrite comment
1 2 3 4 5
please rate
add to favorites
launch autoscroll
font size
0
reset
guitar tuner
Tab Pro tools
  • play this tab
  • loop segment
  • change instrument
  • show fretboard
  • metronome
×
Best way to learn
"Stop"
Autoscroll
slow
fast
+/-
esc
set tempo
stop
Contributor
Spice Girls
Stop

Tabbed by Jess/Abongachong

I put a bass cover of this on Youtube if you'd like to see how it's played :)
http://www.youtube.com/watch?v=ttTBHYxj0lg

x = mute
/ = slide
> - strum


Intro

Slide down from A|-15-|

G|-----------------------------------------------------|
D|-----------------------------------------------------|
A|-3-3-3---1-3------1------1---------------------0-3-0-|x2
E|-------3------1-3----1-3-----/5-5-5-3-5-3-3-3-3------|


Verse
G|----------------------------------------------|
D|----------------------------------------------|
A|-3-3-3--3---xx1-xx1---------------------0-3-0-|x4
E|------3---3----------5-5-5-3-5-3--3-3-3-------|

Pre Chorus
G|----------|    |--------------|
D|----2-3-2-|    |----2>-3>-/5>-|
A|-5>-------|x2  |-5>-----------|x1
E|----------|    |--------------|


Chorus = intro x 2

Post chorus = verse x 2

Verse x 2

Pre Chorusx 1

Chorus = intro x 2

Bridge
G|---------------------------|
D|---------------------------|
A|-3-3-3---1-3-x-x-3-3---1---|x6
E|-------3-------------3---3-|

G|-------------|
D|-------------|
A|-------0-3-0-|x1
E|-3-3-3-------|

Repeat chorus until end

End on 
A|---0-3-|
E|-3-----|
comments
We did not receive enough feedback on this tab! Please rate:
print report bad tab
1 2 3 4 5
I want to post or [tab]
guest
You may want to rate the tab now too:
select rating
Please do not post tabs as comments. Select "correction" instead!