Oops, an error
Loading. Please wait.

Wannabe Bass Tab

version 2
version 2

Whole song

Interactive

10,526 views 36 this week
no commentswrite comment
1 2 3 4 5
accurate
x 6
add to favorites
launch autoscroll
font size
0
reset
guitar tuner
Tab Pro tools
  • play this tab
  • loop segment
  • change instrument
  • show fretboard
  • metronome
Autoscroll
slow
fast
+/-
esc
set tempo
stop
Difficulty
novice
Original Tab by: Martin Cooper
New Contributor: Teh D Bot
Original Song at bottom



Intro
G|-------------------------------------------------------------------|
D|o-----------------------------------------------------------------o|
A|o-----------------5-----------5---7-----------7-------------------o|x3
E|--7-----------7-----------------------------------5-----5-----6----|
    1 + 2 + 3 + 4 + 1 + 2 + 3 + 4 + 1 + 2 + 3 + 4 + 1 + 2 + 3 + 4 +

Verse
G|-------------------------------------------------------------------|
D|o-----------------------------------------------------------------o|
A|o---------------------------------------------------2---2-----2---o|x4
E|--2-----------2---4-----------4---0-----------0---2-------2--------|
    1 + 2 + 3 + 4 + 1 + 2 + 3 + 4 + 1 + 2 + 3 + 4 + 1 + 2 + 3 + 4 +

Pre Chorus
G|-------------------------------------------------------------------|
D|o-----------------------------------------------------------------o|
A|o-----------------5-----------5---7-----------7-------------------o|
E|--7-----------7-----------------------------------5-----5-----6----|
    1 + 2 + 3 + 4 + 1 + 2 + 3 + 4 + 1 + 2 + 3 + 4 + 1 + 2 + 3 + 4 +

Chorus
G|-------------------------------------------------------------------|
D|o-----------------------------------------------------------------o|
A|o---------------------------------------------------2---2-----2---o|x4
E|--2-----------2---4-----------4---0-----------0---2-------2--------|
    1 + 2 + 3 + 4 + 1 + 2 + 3 + 4 + 1 + 2 + 3 + 4 + 1 + 2 + 3 + 4 +

Verse
G|-----------------------------------------------------------------|
D|-----------------------------------------------------------------|
A|---------------------------------------------------2---2-----2---|
E|-7---\---\---\---\---\---\-------0-----------0---2-------2-------|
   1 + 2 + 3 + 4 + 1 + 2 + 3 + 4 + 1 + 2 + 3 + 4 + 1 + 2 + 3 + 4 +

G|-------------------------------------------------------------------|
D|o-----------------------------------------------------------------o|
A|o---------------------------------------------------2---2-----2---o|x3
E|--2-----------2---4-----------4---0-----------0---2-------2--------|
    1 + 2 + 3 + 4 + 1 + 2 + 3 + 4 + 1 + 2 + 3 + 4 + 1 + 2 + 3 + 4 +

Pre Chorus
G|-------------------------------------------------------------------|
D|o-----------------------------------------------------------------o|
A|o-----------------5-----------5---7-----------7-------------------o|
E|--7-----------7-----------------------------------5-----5-----6----|
    1 + 2 + 3 + 4 + 1 + 2 + 3 + 4 + 1 + 2 + 3 + 4 + 1 + 2 + 3 + 4 +

Chorus
G|-----------------------------------------------------------------|
D|-----------------------------------------------------------------|
A|---------------------------------------------------2---2-----2---|
E|---------------------------------0-----------0---2-------2-------|
   1 + 2 + 3 + 4 + 1 + 2 + 3 + 4 + 1 + 2 + 3 + 4 + 1 + 2 + 3 + 4 +

G|-------------------------------------------------------------------|
D|o-----------------------------------------------------------------o|
A|o---------------------------------------------------2---2-----2---o|x3
E|--2-----------2---4-----------4---0-----------0---2-------2--------|
    1 + 2 + 3 + 4 + 1 + 2 + 3 + 4 + 1 + 2 + 3 + 4 + 1 + 2 + 3 + 4 +

Verse
G|-------------------------------------------------------------------|
D|o-----------------------------------------------------------------o|
A|o-----------------5-----5-----5---7-----------7-------------------o|x3
E|--7-----------7-----------5-----------------------5-----5-----6----|
    1 + 2 + 3 + 4 + 1 + 2 + 3 + 4 + 1 + 2 + 3 + 4 + 1 + 2 + 3 + 4 +

G|-----------------------------------------------------------------|
D|-----------------------------------------------------------------|
A|-----------------5-----5-----5---7-------------------------------|
E|-7-----------7-----------5---------------------------------------|
   1 + 2 + 3 + 4 + 1 + 2 + 3 + 4 + 1 + 2 + 3 + 4 + 1 + 2 + 3 + 4 +

Chorus
G|-------------------------------------------------------------------|
D|o-----------------------------------------------------------------o|
A|o---------------------------------------------------2---2-----2---o|x8
E|--2-----------2---4-----------4---0-----------0---2-------2--------|
    1 + 2 + 3 + 4 + 1 + 2 + 3 + 4 + 1 + 2 + 3 + 4 + 1 + 2 + 3 + 4 +

Outro
G|-------------------------------------------------------------------|
D|o-----------------------------------------------------------------o|
A|o-----------------5-----5-----5---7-----------7-------------------o|
E|--7-----------7-----------5-----------------------5-----5-----6----|
    1 + 2 + 3 + 4 + 1 + 2 + 3 + 4 + 1 + 2 + 3 + 4 + 1 + 2 + 3 + 4 +
Tabbed by Dave Vucko



===============================================================================

Here is my version of Wannabe by Spice Girls (my first tab - simple enough even for me).
The verse may not be the exact notes but it is the right notes (ie sounds ok). 
Let me know if you come up with any improvements.
Usual tuning. Timing is approximate.
Just keep repeating the riffs as necessary.


Chorus
|--------|--------|
|--------|--------|
|----5--5|7--7----|
|7--7----|----5-56|
 1&2&3&4& 1&2&3&4&

Verse

|--------|--------|
|--------|--------|
|--------|7--7----|
|2--24--4|----7-77|
 1&2&3&4& 1&2&3&4&

Martin Cooper
rover@starwon.com.au
comments
print report bad tab
I want to post or [tab]
guest
You may want to rate the tab now too:
select rating
Please do not post tabs as comments. Select "correction" instead!