Oops, an error
Loading. Please wait.

5Th Set Tab

version 1
version 1

Whole song

Interactive

871 views 1 this week
no commentswrite comment
1 2 3 4 5
please rate
add to favorites
launch autoscroll
font size
0
reset
how to read this tab
guitar tuner
Autoscroll
slow
fast
+/-
esc
set tempo
stop
Help us to improve Ultimate-Guitar.com Take our survey!
×
Author
Difficulty
Tuning
novice
D A D G B E
Band: Spiderbait
Song: 5th Set
Additional Info: This is taken from my Powertab, if you wish for a copy email
me (georgephillips001@hotmail.com) or download it off The Power Tab Archive (www.powertabs.net)

Two Guitars Tuned Drop D: DADGBe

Key: E minor
Tempo: 167 bpm

Intro
  E  E  E  E  E  E  E  S  S    E E E E E E E E    x8 (Drums come in after 4th Time)
 |----------------------------|-----------------|
4|----------------------------|-----------------|
/|----------------------------|-----------------|
4|----------------------------|-----------------|
 |----------------------------|-----------------|
 |-12-12-12-10-10-10-10-10-10-|-9-9-9-8-8-8-8-8-|

Verse
Repeat Intro Riff 4x

Chorus
  E E E Q   E E E    E  E E Q   E E E   x4
|-----------------|-------------------|
|-----------------|-------------------|
|-----------------|-------------------|
|-6-0-0-3---0-0-6-|-(6)-0-0-3---5-0-0-|
|-6-0-0-3---0-0-6-|-(6)-0-0-3---5-0-0-|
|-6-0-0-3---0-0-6-|-(6)-0-0-3---5-0-0-|

Break
Repeat Intro Riff 4x

Verse
Repeat Intro Riff 4x

Chorus
Repeat Chorus Riff 4x

Bridge
  Q   E E Q   E E   x8 Both Guitars then x8 Gtr I then x16 Both Guitars
|-----------------|
|-----------------|
|-----------------|
|-3---5-0-3---5-0-|
|-3---5-0-3---5-0-|
|-3---5-0-3---5-0-|

Break
Repeat Intro Riff 4x

Verse
Repeat Intro Riff 4x

Chorus
Repeat Chorus Riff 4x

Outro
Repeat Chorus Riff 8x
Then:
Gtr I 
                                Wah effects fade in by Gtr II
  W      W       W       W       W       W       W       W
|-----|-------|-------|-------|-------|-------|-------|-------|
|-----|-------|-------|-------|-------|-------|-------|-------|
|-----|-------|-------|-------|-------|-------|-------|-------|
|-0---|-(0)---|-(0)---|-(0)---|-(0)---|-(0)---|-(0)---|-(0)---|
|-0---|-(0)---|-(0)---|-(0)---|-(0)---|-(0)---|-(0)---|-(0)---|
|-0---|-(0)---|-(0)---|-(0)---|-(0)---|-(0)---|-(0)---|-(0)---|

 Gtr I
   W       W      (W)     (W)     (W)     (W)
|-------|-------|-------|-------|-------|--------|
|-------|-------|-------|-------|-------|--------|
|-------|-------|-------|-------|-------|--------|
|-(0)---|-(0)---|-------|-------|-------|--------|
|-(0)---|-(0)---|-------|-------|-------|--------|
|-(0)---|-(0)---|-------|-------|-------|--------|
|Gtr II                                          |
| W      W         W       W       W       H.  Q |
|-------|-------|-------|-------|-------|--------|
|-------|-------|-------|-------|-------|--------|
|-------|-------|-------|-------|-------|--------|
|-------|-------|-------|-------|-------|--------|
|-3~~~~~|~(3)~~~|~(3)~~~|~(3)~~~|~(3)~~~|~(3)~~3/|
|-------|-------|-------|-------|-------|--------|

The End.

Tab Legend (in order as they appear):
(x)= Tied note
 ~ = Vibrato
 / = Slide up

Time Legend:
W = Whole Note          (4 beats)
H.= Half Note dotted    (3 beats)
H = Half Note           (2 beats)
Q.= Quarter Note dotted (1.5 beats)
Q = Quarter Note        (1 beat)
E = Eighth Note         (.5 beat)
S = Sixteenth Note      (.25 beat)
Suggest correction
What's this?
You can suggest a correction to this tab. Community and Mods will review your correction and vote to approve or reject it.
comments
We did not receive enough feedback on this tab! Please rate:
print report bad tab
1 2 3 4 5
guest
You may want to rate the tab now too:
select rating
Please do not post tabs as comments. Select "correction" instead!