Oops, an error
Loading. Please wait.

Black Betty Bass Tab

version 1
version 1

Whole song

Interactive

8,180 views 6 this week
no commentswrite comment
1 2 3 4 5
x 3
add to favorites
launch autoscroll
font size
0
reset
guitar tuner
Autoscroll
slow
fast
+/-
esc
set tempo
stop
Help us to improve Ultimate-Guitar.com Take our survey!
×
Author
Hey [=
This is my first tab and i've been playing bass 4 less than a week lol, its pretty much 
same riff
repeated through the song

|--------------------------------| (repeated throughout song)
|-----------------------3--------|
|--3--5-5----------3--5----------|
|--------------------------------|


Alternatively try this

|--------------------------------|
|----------3-5-3-----------------|
|--3--5-5------------------------|
|--------------------------------|

There, easy =]
I think this is the original key but try changing it around and it sounds cool 2
Suggest correction
Give kudos to tab author, rate the tab!
1 2 3 4 5
comments
print report bad tab
guest
You may want to rate the tab now too:
select rating
Wanna post a correction for this tab? Suggest correction