Oops, an error
Loading. Please wait.

Black Betty tab

version 2
version 2

Whole song

Interactive

107,450 views 18 this week
26 commentsread comments
1 2 3 4 5
x 20
add to favorites
×
Save as Personal and add changes to this tab that will be seen only by you. Learn more ›
×
You can save this tab as Personal to edit and correct it or add notes. All changes will be seen only by you. Learn more »
launch autoscroll
font size
0
reset
how to read this tab
guitar tuner
edit
Autoscroll
slow
fast
+/-
esc
set tempo
stop
Author
-------------------------------------------------------------------------------
                             Black Betty - Spiderbait
-------------------------------------------------------------------------------
Tabbed by: schleichi
Email: lemmyfredericksen@yahoo.de

Visit Winamp.com and get the PACEMAKER PLUGIN if you can´t hear some fast part of a song
You can slow down every song down up to 43 %, so you can easyly tab everything, no matter how 
fast it is. The more people use this plugin, the better tabs will become.

Tuning: EADGBe


[Intro]

        q             q    (x5)
e|----------------------------|------------------------------------------|
B|----------------------------|------------------------------------------|
G|------^---------4---^-------|-----/12--12-\10-10-10--------------------|
D|------3p0---0-3---4-3p0-0---|---0-/-9---9-\-7--7--7--------------------|
A|--5\3-----------------------|------------------------------------------|
E|----------------------------|------------------------------------------|


[Part A]
                
e|--------------------------|
B|--------------------------|
G|----------------------10--|
D|--10-/-12---10-/-12-x-10--|
A|--10-/-12---10-/-12-x--8--|
E|---8-/-10----8-/-10-x-----|(x4)


[Verse 1]

D
Whoa, black betty (bam-ba-lam)
Yeah, black betty (bam-ba-lam)
                        D
Black betty had a child (bam-ba-lam)
                         D
The damn thing gone wild (bam-ba-lam)
                       D
And she's always ready (bam-ba-lam)
                     D
She's so rock steady (bam-ba-lam)
                  D
Whoa, black betty (bam-ba-lam)
                 D
yeah, black betty (bam-ba-lam)

                                            (x4)
e|------------|--------------------------------|----------|
B|------------|--------------------------------|----------|
G|------------|-----------------10--12--10\7---|-5-7--10--|
D|-Part-A--1x-|--10-/-12--12-x--10--12--10\7---|-5-7--10--|
A|------------|--10-/-12--12-x---8--10---8\5---|-3-5---8--|
E|------------|---8-/-10--10-x-----------------|----------|


[Verse 2]
(same chords like verse 1)

Oh, black betty (bam-ba-lam)
Whoa, black betty (bam-ba-lam)
She really gets me high (bam-ba-lam)
You know that's no lie (bam-ba-lam)
And she's always ready (bam-ba-lam)
She's so rock steady (bam-ba-lam)
Whoa, black betty (bam-ba-lam)
yeah, black betty (bam-ba-lam)

     
e|---_-------------------------------_--------------------------|
B|--/ \-----------------------------/ \-------------------------|
G|--12--12-10---10----------10-------12--12--10----10-----------|
D|------------12---12-10-12---------------------12--------------|
A|--------------------------------------------------------------|
E|--------------------------------------------------------------|

e|-------------------------------------------------------------------------|
B|-------------------------------------------------------------------------|
G|-10-10-10-10--12---------------------------------------------------------|
D|-10-10-10-10--12----------------------12-..-12---------------------------|
A|--8--8--8--8--10---8---------------8--12-..-12---------------------------|
E|---------------------10-8--10-10------10-..-10--8h10--8h10--...-8h10-----|
                                                    oh yeah..all right...


e|-----------------------------------|
B|-----------------------------------|
G|----------------------------10-12--|
D|---12-12-12-12-12-12--10-12-10-12--|
A|---12-12-12-12-12-12--10-12--8-12--|
E|---10-10-10-10-10-10---8-10----10--|
     oh yeah    .... all right


[Solo 2 Backing]

e|-----------------------------------------|
B|-----------------------------------------|
G|-----------------------------------------|
D|--10-12-12-12-10--12-12-12--10-12-12-----|
A|--10-12-12-12-10--12-12-12---8-10-10-----|
E|--8--10-10-10--8--10-10-10---------------|


[Solo 2]

                           (3x)                        1.\          full bend
e|----------------------------|---------------------------|--------------------------|
B|----------------------------|---------------------------|---------------/--/--/--/-|
G|-----12-10------------------|--------10-12-13p12p10--10-|--------------10-10-10-10-|
D|-12\\-----12p10-12p10-12p10-|-12\\-12--------------12---|--------------------------|
A|----------------------------|---------------------------|--------------------------|
E|----------------------------|---------------------------|10-10-8-10-10-------------|

Whoa, black betty (bam-ba-lam)
Whoa, black betty (bam-ba-lam)
She's from birmingham (bam-ba-lam)
Way down in alabam' (bam-ba-lam)
Black betty had a child (bam-ba-lam)
The damn thing gone wild (bam-ba-lam)
Whoa, black betty (bam-ba-lam)
Whoa, black betty bam-ba-lam

(repeat intro)


[Outro Lick] 
           
                        (x8)
e|-------------------------|-------|
B|-------------------------|-------|
G|--------12-10--13-13\12--|-------|
D|--10-12------------------|---12--|
A|-------------------------|---12--|
E|-------------------------|---10--|
                               Damn right


************************************

| /  slide up
| \  slide down
| h  hammer-on
| p  pull-off
| ~  vibrato
| +  harmonic
| x  Mute note

************************************

            
            
Suggest correction
Creating personal tab
Creating personal tab
You can edit any tab online and save it as your Personal.

You can edit, replace or remove any tab part or add personal notes – all changes will be seen only by you.

Personal tabs can be accessed anytime from any device, even offline.
Learn more »
comments
print report bad tab
26 comments total. Showing first comments.
0 reply
AC/DC10 30 Sep 05, 2005 08:00 PM

is the pacemaker thingy free?

+1 reply
grape_moosha 10 Oct 09, 2005 07:43 PM

great tab

nice tuning to
ehgdae hehe

0 reply
schleichi 738 Oct 14, 2005 08:45 AM

i´m sorry for the tuning....i first wanted to have it in drop D , but then i thought that it´s useless in this song

and YES, PACEMAKER IS FREE!download here :
http://www.winamp.com/plugins/browse.php?filter=C&sortby=publish&start=31&shownum=5&category=5&ctype=P

guest
You may want to rate the tab now too:
select rating
Wanna post a correction for this tab? Suggest correction