Oops, an error
Loading. Please wait.

Black Betty Tab

version 2
version 2

Interactive

7,711 views 3 this week
3 commentsread comments
1 2 3 4 5
1 last vote to show rating
add to favorites
launch autoscroll
font size
0
reset
how to read this tab
guitar tuner
Autoscroll
slow
fast
+/-
esc
set tempo
stop
Help us to improve Ultimate-Guitar.com Take our survey!
×
Band - Spiderbait
Song - Black Betty
Album - 100 Tonight alright
Transcribed by - Alex Campbell (100% my own work)

H - Hammer note
/ - Slide up
\ - Slide down
^ - Bend

Banjo: (use slide)
E-|----------------------------------------|
B-|----------------------------------------|
G-|----------------------------------------|
D-|--------3-0h--0--5-0h---3-0h--0---------|(x 5)
A-|---5-0h---------------------------------|
D-|----------------------------------------|


E-|------------------------------------|
B-|------------------------------------|
G-|------------------------------------|
D-|----3/5-5-5-5-5--3-3-3-3-3/5--0-----|
A-|------------------------------------|
D-|------------------------------------|


Guitar: (distorted)
E-|------------------------------------------|
B-|------------------------------------------|
G-|-------------------------------7----------|
D-|----7--9-\-------------7--9-9--7----------|(x4)
A-|----7--9-\-------------7--9-9--5----------|
E-|----5--7-\-------------5--7-7-------------|


Play chord before bam-alam is said each time.
E-|-----------------------------------|
B-|-----------------------------------|
G-|----7------------------------------|
D-|----7------------------------------|
A-|----5------------------------------|
E-|-----------------------------------|


Start of guitar solo (part 1)
E-|-------------------------------------------------|
B-|-------------------------------------------------|
G-|----12^--12--10------10----------------10--------|
D-|-----------------12-------12--10---12------------|
A-|-------------------------------------------------|
E-|-------------------------------------------------|


E-|-----------------------------------|
B-|-----------------------------------|
G-|----12^--10------------------------|
D-|------------12--10--12-------------|
A-|-----------------------------------|
E-|-----------------------------------|


E-|----------------------------------------------------------------|
B-|----------------------------------------------------------------|
G-|--7--7--7--7--9--9--7----------7--------------------------------|
D-|--7--7--7--7--9--9--7---7---9--7--9----9----9----9--9--9--9-----|
A-|--5--5--5--5--7--7--5---7---9--5--9----9----9----9--9--9--9-----|
D-|------------------------5---7-----7----7----7----7--7--7--7--—--|


Guitar played behind part 2 solo (confusing)
E-|---------------------------------------------------|
B-|---------------------------------------------------|
G-|---------------------------------------------------|
D-|---------------------------------------------------|
A-|---5--5-5-5--5-5-5--5-5-5--3-5-3-5-----------------|
E-|---3----------------3------------------------------|

(Part 2)

E-|---------------------------------------------------|
B-|---------------------------------------------------|
G-|-----------12--10------------------------12—10-----|
D-|---10/-12-----------10/-12--12--12--12-------------|
A-|---------------------------------------------------|
E-|---------------------------------------------------|


E-|---------------------------------------------------|
B-|---------------------------------------------------|
G-|-----------10--12-12^-10---------------------------|
D-|---10/-12-----------------12--10—12----------------|
A-|---------------------------------------------------|
E-|---------------------------------------------------|
End of solo


Repeat intro 
E-|-------------------------------------------|
B-|-------------------------------------------|
G-|-------------------------------7-----------|
D-|----7--9-\-------------7--9-9--7-----------|(x 4)
A-|----7--9-\-------------7--9-9--5-----------|
E-|----5--7-\-------------5--7-7--------------|


E-|-------------------------------------------|
B-|-------------------------------------------|
G-|-------------7--9--7-----------------------|
D-|----7--9-9---7--9--7----7--9-9-------------|(x 6)
A-|----7--9-9---5--7--5----7--9-9-------------|
E-|----5--7-7--------------5--7-7-------------|


This is played during the end bit
E-|-------------------------------------------|
B-|-------------------------------------------|
G-|----------10--12-12h-10--------------------|
D-|---10--12----------------12--10--12--------|(x 6)
A-|-------------------------------------------|
E-|-------------------------------------------|


BAMALAAAAAAAAAAAAAAAAAAAAAAAAAAAAAAAAM!!!!!!!!!
E-|------------------------------------------------|
B-|------------------------------------------------|
G-|----------------------------------------7-------|
D-|---9-9-9-9-9-9-9-9-9-9-9-9-9-9-9-9-9-9--7--9----|
A-|---9-9-9-9-9-9-9-9-9-9-9-9-9-9-9-9-9-9--5--9----|
E-|---7-7-7-7-7-7-7-7-7-7-7-7-7-7-7-7-7-7-----7----|
Suggest correction
Give kudos to tab author, rate the tab!
1 2 3 4 5
comments
print report bad tab
3 comments total.
0 reply
tom_nik 230 Feb 07, 2005 12:00 AM

not bad champ.. except the whole song is in D. its so much easier that way

0 reply
Revan 30 Apr 04, 2005 12:00 AM

Doesn't sound right to me, I must have a different recording of black betty. This one doesn't have a solo... hmm...

0 reply
woodgerm 10 Oct 09, 2006 12:14 PM

yer but i dont understand the intro were it ses 0h0

guest
You may want to rate the tab now too:
select rating
Wanna post a correction for this tab? Suggest correction