Oops, an error
Loading. Please wait.

Black Betty Tab

version 4
version 4

Interactive

19,623 views 15 this week
3 commentsread comments
1 2 3 4 5
x 8
add to favorites
launch autoscroll
font size
0
reset
how to read this tab
guitar tuner
Autoscroll
slow
fast
+/-
esc
set tempo
stop
Help us to improve Ultimate-Guitar.com Take our survey!
×
Black Betty - Spiderbait

Key = F
Timing = 4/4
Speed = 123
Amp Setting = Treble (8), Middle (3), Bass (6), Reverb (0)
Tunings =(E,A,D,G,B,e) and (D,A,D,F#,A,d (for banjo))


Banjo Intro                        x5
 |---------------------------------| |-------------------------|
 |---------------------------------| |-------------------------|
 |--------------0--5\---/3---------| |-/5----5--5-3--3-3--/5--5|
 |-0--/4--0--0--------0-/3--0--0---| |-/5----5--5-3--3-3--/5--5|
 |---0------------------/5--------0| |-------------------------|
 |---------------------------------| |-------------------------|


Main Riff (Guitar)
                          _________________    ________
                         |1.2.3.              |4.           
 |---| |----------------|------------------| |---------|--------------|
 |---|o|----------------|------------------|o|---------|--------------|
 |---| |----------------|-------10---------| |-------10|--------------|
 |-10| |--12\\--------10|-12-12-10-------10| |-12-12-10|------------12|
 |-10|o|--12\\--------10|-12-12--8-------10|o|-12-12--8|------------12|
 |--8| |--10\\---------8|-10-10-----------8| |-10-10---|------------10|

Verse           x5
 | |------------| |------------|
 |o|------------|o|------------|
 | |------------| |------------|
 | |-----12-----| |----12----10|
 |o|-----12-----|o|----12----10|
 | |-----10-----| |----10-----8|

Chorus                                 x4
 | |-----------------------------------| |-----------|---------------|
 |o|-----------------------------------|o|-----------|---------------|
 | |-----------------10----12----------| |-----------|-10------------|
 | |-12--12--12-12-x-10----12--10po7-10| |-12--------|-10----------12|
 |o|-12--12--12-12-x--8----10--10po7-10|o|-12--------|--8----------12|
 | |-10--10--10-10-x------------------8| |-10--------|-------------10|

Interlude                                       ~~~~~~~~~~~~~~
 |-----------------------------|---------------------|-----|-----|
 |-----------------------------|---------------------|-----|-----|
 |-12b-12po10----10----------10|-12b-12po10----10----|-----|-----|
 |------------12---12po10-12---|------------12-------|-----|-----|
 |-----------------------------|---------------------|-----|-----|
 |-----------------------------|---------------------|-----|-----|

 |---------------------------|----------------|-----------|----------------|
 |---------------------------|----------------|-----------|----------------|
 |-10-10-10-10----12-10po7---|----10-10-------|-----------|----------------|
 |-10-10-10-10----12-10po7-10|-12-10-10-12\---|-----------|----------------|
 |--8--8--8--8----10-------10|-12--8--8-12\---|-3h5----3h5|-3h5--3h5--3----|
 |--------------------------8|-10-------10\-3/|-----------|-------------5-3|
                                               |HammerOn really fast|
                                 
                                                   _3_
    Pm..........................x7............... | | |
 | |----------------------------| |--------------------|
 |o|----------------------------|o|--------------------|
 | |----------------------------| |--------------------|
 | |----------------------------| |---------------3-5-5|
 |o|---x---3h5---x---x-3-x---3h5|o|---x---3h5-----3-5-5|
 | |-x---x-----x---x-------x----| |-x---x-----x-x-1-3-3|


Bridge
    Pm............................x3.....................
 | |------------------------------| |--------------------|
 |o|------------------------------|o|--------------------|
 | |------------------------------| |--------------------|play bridge 2x
 | |------------------------------| |---------------3-5-5|
 |o|-------3h5-----------3---3-3h5|o|-------3-------3-5-5|
 | |-x-x-x-----x-x-x-x-x---x------| |-x-x-x---x-x-x-1-3-3|

Lead Break            x3
 | |------------------| |-------------------------------|
 |o|-----12-10-\------|o|-------------------------------|
 | |-----12-10-\------| |--------10-12-12b-12---10----10|play lead 2x
 | |-12\---------12-12| |-12\-12--------------12---12---|
 |o|------------------|o|-------------------------------|
 | |------------------| |-------------------------------|


Chorus                            x5
 | |------------------------------| |----------------------------|
 |o|-------12---------------------|o|----12----------------------|
 | |-------12-10-12b-12po10-------| |----12-10-12b-b-b-b-b-b-po10|
 | |-12-12------------------12po10| |-12-------------------------|
 |o|------------------------------|o|----------------------------|
 | |------------------------------| |----------------------------|

                                  x2
 | |------------------------------| |
 |o|-------12---------------------|o|
 | |-------12-10-12b-12po10-------| |
 | |-12-12------------------12po10| |
 |o|------------------------------|o|
 | |------------------------------| |

Outro
      _ _ 6 _ _   _ _ 6 _ _   _ _ 6 _ _   _ _ 6 _ _     
     | | | | | | | | | | | | | | | | | | | | | | | |x4  <*> 
 | |------------------------------------------------| |-----------|
 |o|------------------------------------------------|o|-----------|
 | |-7-7-7-7-7-7-7-7-7-7-7-7-7-7-7-7-7-7-7-7-7-7-7-7| |-10--------|
 | |-7-7-7-7-7-7-7-7-7-7-7-7-7-7-7-7-7-7-7-7-7-7-7-7| |-10----12\\|
 |o|-5-5-5-5-5-5-5-5-5-5-5-5-5-5-5-5-5-5-5-5-5-5-5-5|o|--8----12\\|
 | |------------------------------------------------| |-------10\\|

Legend

po = pull off
h = hammer on
<*> = pause (continully play)
\ = slide down
/ = slide up
x = dampen string
b = bend
Pm.... = palm mute
Suggest correction
comments
print report bad tab
3 comments total.
0 reply
Spinchair 10 Aug 24, 2008 03:32 AM

fricken awsome tab, heaps of info which is good!! 5 stars!

0 reply
CrazyYaz 725 Oct 20, 2008 04:32 PM

great tab lol. 5 star

0 reply
axl rose 35 15 Jul 10, 2009 02:29 AM

banjos only have 5 strings

/\/{}{}13

guest
You may want to rate the tab now too:
select rating
Wanna post a correction for this tab? Suggest correction