Oops, an error
Loading. Please wait.

Black Betty Tab

version 6
version 6

Interactive

3,439 views 3 this week
no commentswrite comment
1 2 3 4 5
accurate
x 3
add to favorites
launch autoscroll
font size
0
reset
how to read this tab
guitar tuner
Autoscroll
slow
fast
+/-
esc
set tempo
stop
Help us to improve Ultimate-Guitar.com Take our survey!
×
Author
Deck_dalo 618
Band – Spiderbait
Song – Black Betty
Album – 100 Tonight alright

H - Hammer note
/ - Slide up
 - Slide down
^ - Bend

Banjo: (use slide)
E-|----------------------------------------|
B-|----------------------------------------|
G-|----------------------------------------|
D-|--------3-0h--0--5-0h---3-0h--0---------|(x 5)
A-|---5-0h---------------------------------|
E-|----------------------------------------|


E-|------------------------------------|
B-|------------------------------------|
G-|------------------------------------|
D-|----3/5-5-5-5-5--3-3-3-3-3/5--0-----|
A-|------------------------------------|
E-|------------------------------------|


Guitar: (distorted)
E-|------------------------------------------|
B-|------------------------------------------|
G-|-------------------------------7----------|
D-|----7--9--------------7--9-9--7----------|(x4)
A-|----7--9--------------7--9-9--5----------|
E-|----5--7--------------5--7-7-------------|


Play chord before bam-alam is said each time.
E-|-----------------------------------|
B-|-----------------------------------|
G-|----7------------------------------|
D-|----7------------------------------|
A-|----5------------------------------|
E-|-----------------------------------|
  ...Black betty... Bam alam....

Start of guitar solo (part 1)
E-|-------------------------------------------------|
B-|-------------------------------------------------|
G-|----12^--12--10------10----------------10--------|
D-|-----------------12-------12--10---12------------|
A-|-------------------------------------------------|
E-|-------------------------------------------------|


E-|-----------------------------------|
B-|-----------------------------------|
G-|----12^--10------------------------|
D-|------------12--10--12-------------|
A-|-----------------------------------|
E-|-----------------------------------|


E-|----------------------------------------------------------------|
B-|----------------------------------------------------------------|
G-|--7--7--7--7--9--9--7----------7--------------------------------|
D-|--7--7--7--7--9--9--7---7---9--7--9----9----9----9--9--9--9-----|
A-|--5--5--5--5--7--7--5---7---9--5--9----9----9----9--9--9--9-----|
E-|------------------------5---7-----7----7----7----7--7--7--7--—--|


Guitar played behind part 2 solo (confusing,optional..)
E-|---------------------------------------------------|
B-|---------------------------------------------------|
G-|---------------------------------------------------|
D-|---------------------------------------------------|
A-|---5--5-5-5--5-5-5--5-5-5--3-5-3-5-----------------|
E-|---3----------------3------------------------------|

(Part 2)

E-|---------------------------------------------------|
B-|---------------------------------------------------|
G-|-----------12--10------------------------12—10-----|
D-|---10/-12-----------10/-12--12--12--12-------------|
A-|---------------------------------------------------|
E-|---------------------------------------------------|

E-|---------------------------------------------------|
B-|---------------------------------------------------|
G-|---------------------------12-10-------------------|
D-|------10/-12--12--12--12---------------------------|
A-|---------------------------------------------------|
E-|---------------------------------------------------|


E-|---------------------------------------------------|
B-|---------------------------------------------------|
G-|-----------10--12-12^-10---------------------------|
D-|---10/-12-----------------12--10—12----------------|
A-|---------------------------------------------------|
E-|---------------------------------------------------|
End of solo


Repeat intro 
E-|-------------------------------------------|
B-|-------------------------------------------|
G-|-------------------------------7-----------|
D-|----7--9--------------7--9-9--7-----------|(x 4)
A-|----7--9--------------7--9-9--5-----------|
E-|----5--7--------------5--7-7--------------|


E-|-------------------------------------------|
B-|-------------------------------------------|
G-|-------------7--9--7-----------------------|
D-|----7--9-9---7--9--7----7--9-9-------------|(x 6)
A-|----7--9-9---5--7--5----7--9-9-------------|
E-|----5--7-7--------------5--7-7-------------|


This is played during the end bit
E-|-------------------------------------------|
B-|-------------------------------------------|
G-|----------10--12-12h-10--------------------|
D-|---10--12----------------12--10--12--------|(x 6)
A-|-------------------------------------------|
E-|-------------------------------------------|


BAMALAAAAAAAAAAAAAAAAAAAAAAAAAAAAAAAAM!!!!!!!!!
E-|------------------------------------------------|
B-|------------------------------------------------|
G-|----------------------------------------7-------|
D-|---9-9-9-9-9-9-9-9-9-9-9-9-9-9-9-9-9-9--7--9----|
A-|---9-9-9-9-9-9-9-9-9-9-9-9-9-9-9-9-9-9--5--9----|
E-|---7-7-7-7-7-7-7-7-7-7-7-7-7-7-7-7-7-7-----7----|

Suggest correction
What's this?
You can suggest a correction to this tab. Community and Mods will review your correction and vote to approve or reject it.
comments
We did not receive enough feedback on this tab! Please rate:
print report bad tab
1 2 3 4 5
guest
You may want to rate the tab now too:
select rating
Please do not post tabs as comments. Select "correction" instead!