Oops, an error
Loading. Please wait.

Calypso Tab

version 1
version 1

Whole song

Interactive

14,139 views 12 this week
2 commentsread comments
1 2 3 4 5
excellent!
x 10
add to favorites
launch autoscroll
font size
0
reset
how to read this tab
guitar tuner
Autoscroll
slow
fast
+/-
esc
set tempo
stop
Help us to improve Ultimate-Guitar.com Take our survey!
×
Author
SONG: Calypso
ARTIST: Spiderbait
ALBUM: Ivy And The Big Apples (1997)
TABBED BY: Mikey
E-MAIL: mikey@spiderbait.cjb.net


*standard tuning*
(low to high: E-A-D-G-B-E)



INTRO (acoustic)
E |-----------0-------------2-------------0-------------2---------|
B |---------------2-------------3-------------2-------------3-----|
G |-------2-----------2-2-----------2-1-----------2-2-------------|
D |---------------------------------------------------------------|
A |---------------------------------------------------------------|
E |---------------------------------------------------------------|

E |------------0-------------2-------------0-------------2--------|
B |---------------2-------------3-------------2-------------3-----|
G |-----2-2-----------2-2-----------2-1-----------2-2-------------|
D |---------------------------------------------------------------|
A |---------------------------------------------------------------|
E |---------------------------------------------------------------|



VERSE 1 (acoustic)
E |------------0-------------2-------------0-------------2--------|
B |---------------2-------------3-------------2-------------3-----|
G |o----2-2-----------2-2-----------2-1-----------2-2------------o|
D |o-------------------------------------------------------------o|
A |---------------------------------------------------------------|
E |---------------------------------------------------------------|
    (play x 4)


(w/distortion)
E |----------------------------------|
B |----------------------------------|
G |o---------5-5-x--7-7-x--9-9-9----o|
D |o----7-x--5-5-x--7-7-x--9-9-9----o|
A |-----7-x--3-3-x--5-5-x--7-7-7-----|
E |-----5-x--------------------------|
    (play x 3)

E |----------------------------------|
B |----------------------------------|
G |----------------------------------|
D |-----7-7-x--6-6---4-4---2-2-2-----|
A |-----7-7-x--6-6---4-4---2-2-2-----|
E |-----5-5-x--4-4-0-2-2-0-0-0-0-----|



CHORUS
E |--------------------------------|
B |--------------------------------|
G |o----7-7--x--9-9---------------o|
D |o----7-7--x--9-9--x--7--7-7----o| 
A |-----5-5--x--7-7--x--7--7-7-----|
E |---------------------5--5-5-----|
    (play x 3)

E |--------------------------------|
B |--------------------------------|
G |-----7-7--x--9-9----------------|
D |-----7-7--x--9-9----------------| 
A |-----5-5--x--7-7----------------|
E |--------------------------------|



VERSE 2
E |----------------------------------------------------|
B |----------------------------------------------------|
G |---------------------7----------9----------7--------|
D |----------7-------------7----------9----------7-----|
A |-------------7--5-5--------7-7--------5-5-----------|
E |-------5--------------------------------------------|

E |----------------------------------------------------|
B |----------------------------------------------------|
G |o--------------------7----------9----------7-------o|
D |o---------7-------------7----------9----------7----o|
A |-------------7--5-5--------7-7--------5-5-----------|
E |-----5-5--------------------------------------------|
    (play x 3)

(w/distortion)
E |----------------------------------|
B |----------------------------------|
G |o---------5-5-x--7-7-x--9-9-9----o|
D |o----7-x--5-5-x--7-7-x--9-9-9----o|
A |-----7-x--3-3-x--5-5-x--7-7-7-----|
E |-----5-x--------------------------|
    (play x 3)

E |----------------------------------|
B |----------------------------------|
G |----------------------------------|
D |-----7-7-x--6-6---4-4---2-2-2-----|
A |-----7-7-x--6-6---4-4---2-2-2-----|
E |-----5-5-x--4-4-0-2-2-0-0-0-0-----|



CHORUS 2
E |--------------------------------|
B |--------------------------------|
G |o----7-7--x--9-9---------------o|
D |o----7-7--x--9-9--x--7--7-7----o| 
A |-----5-5--x--7-7--x--7--7-7-----|
E |---------------------5--5-5-----|
    (play x 3)

E |-----------------------------------------------------|
B |-----------------------------------------------------|
G |-----7-7--x--9-9-------------------------------------|
D |-----7-7--x--9-9--x--7-------------------------------| 
A |-----5-5--x--7-7--x--7-(let ring into next part)-----|
E |---------------------5-------------------------------|



   repeat INTRO
   repeat VERSE 1


OUTRO/CHORUS 3
E |--------------------------------|
B |--------------------------------|
G |o----7-7--x--9-9---------------o|
D |o----7-7--x--9-9--x--7--7-7----o| 
A |-----5-5--x--7-7--x--7--7-7-----|
E |---------------------5--5-5-----|
    (play x 3)

E |---------------------|
B |---------------------|
G |-----7-7--x--9-9-----|
D |-----7-7--x--9-9-----| 
A |-----5-5--x--7-7-----|
E |---------------------|

E |--------------------------------|
B |--------------------------------|
G |o----7-7--x--9-9---------------o|
D |o----7-7--x--9-9--x--7--7-7----o| 
A |-----5-5--x--7-7--x--7--7-7-----|
E |---------------------5--5-5-----|
    (play x 3)

E |--------------------------------------|
B |--------------------------------------|
G |-----7-7--x--9-9----------------------|
D |-----7-7--x--9-9--x--7----------------| 
A |-----5-5--x--7-7--x--7-(let ring)-----|
E |---------------------5----------------|
Suggest correction
comments
print report bad tab
2 comments total.
0 reply
Spicy chicken 70 wrote on March 17 2002, 12:00 am

Excellent tab!!! Good job!

0 reply
Jc447 137 wrote on August 15 2013, 04:30 am

It's his band :P He should know the song!

guest
You may want to rate the tab now too:
select rating
Please do not post tabs as comments. Select "correction" instead!