Oops, an error
Loading. Please wait.

Ghost Riders In The Sky Tab

version 1
version 1

Whole song

Interactive

56,113 views 18 this week
no commentswrite comment
1 2 3 4 5
excellent!
x 13
add to favorites
launch autoscroll
font size
0
reset
how to read this tab
guitar tuner
Tab Pro tools
  • play this tab
  • loop segment
  • change instrument
  • show fretboard
  • metronome
×
Best way to learn
"Ghost Riders In The Sky"
Autoscroll
slow
fast
+/-
esc
set tempo
stop
Difficulty
novice
SPIDERBAIT
soundtrack "Ghost Rider"
Theme: Ghost RIders In The Sky

ALL CHORDS WITH PALM M.


INtro
Em5

G---/19-(19)------|
D---/19-----------|


Em5                               G5
An old cowboy went riding out one dark and windy day
Em5
Upon a ridge he rested as he went along his way

When all at once a mighty herd of red eyed cows he saw
C5                    G5                           Em5
A-plowing through the ragged sky and up the cloudy draw


Em5                        G5
Their brands were still on fire and their hooves were made of steel
Em5
Their horns were black and shiny and their hot breath he could feel

A bolt of fear went through him as they thundered through the sky
C5                    G5                                      Em5
For he saw the Riders coming hard and he heard their mournful cry

          G5
Yippie yi yaaaaay
          Em5
Yippie yi Ohhhhh
C5           G5     Em5
Ghost Riders in the sky

          G5
Yippie yi yaaaaay
          Em5
Yippie yi Ohhhhh
C5           G5     Em5
Ghost Riders in the sky


-----Riff

e------------------------------------------------------------|
b------------------------------------------------------------|
g---------------------------------------------2-4-44---4-----|
d----2-22-4-5-55-2----------------2-22-4-5-55--------5-------|
a--2---------------5-55-2-5-----2----------------------------|
e------------------------------------------------------------|


e----------------------------------------------------|
b------5-5-55----------------------------------------|
g--4-4--------4-4-44---------------------------------|
d--------------------5-2----------5-55---4/5-22---2--|
a------------------------2-3-33-3---------------5----|
e----------------------------------------------------|


e-----------|
b-----------|
g----44--44-|
d--2--------|             play over and over realy fast
a------2----|             for as long as you want
e-----------|

Em5                                         G5
Their faces gaunt, their eyes were blurred, their shirts all soaked with sweat
Em5
He's riding hard to catch that herd, but he ain't caught 'em yet

'Cause they've got to ride forever on that range up in the sky
C5                 G5                              Em5
On horses snorting fire As they ride on hear their cry

Em5
As the riders loped on by him he heard one call his name
Em5
If you want to save your soul from Hell a-riding on our range

Then cowboy change your ways today or with us you will ride
C5                  G5                                 Em5
Trying to catch the Devil's herd, across these endless skies


          G5
Yippie yi yaaaaay
          Em5
Yippie yi Ohhhhh
C5           G5     Em5
Ghost Riders in the sky


          G5
Yippie yi yaaaaay
          Em5
Yippie yi Ohhhhh
C5           G5     Em5
Ghost Riders in the sky


----SOLO-------

          G5
Yippie yi yaaaaay
          Em5
Yippie yi Ohhhhh
C5           G5     Em5
Ghost Riders in the sky


          G5
Yippie yi yaaaaay
          Em5
Yippie yi Ohhhhh
C5           G5     Em5
Ghost Riders in the sky


          G5
Yippie yi yaaaaay
          Em5
Yippie yi Ohhhhh
C5...........G5.....Em (clean).......
Ghost Riders in the sky

any comment

caalmali@hotmail.com
comments
print report bad tab
I want to post or [tab]
guest
You may want to rate the tab now too:
select rating
Please do not post tabs as comments. Select "correction" instead!