Oops, an error
Loading. Please wait.

Ghost Riders In The Sky Tab

version 2
version 2

Whole song

Interactive

9,392 views 1 this week
1 commentread comment
1 2 3 4 5
please rate
add to favorites
launch autoscroll
font size
0
reset
how to read this tab
guitar tuner
Autoscroll
slow
fast
+/-
esc
set tempo
stop
Help us to improve Ultimate-Guitar.com Take our survey!
×
Spider Bait-Ghost Riders In The Sky

Any questions or coments, E-Mail me at Mechaghostman2@rocketmail.com

Standard Tuning
(EADGBE)

/=Slide
~=Vibrato


E|-------------------------------------------------------------------------|
B|-------------------------------------------------------------------------|
G|----------------------------------------------------------22-2-2---------|
D|--------------------------------------------3-33---3~~0-2---------22-0---|
A|--0-00-2-3-33-0---------------0-00-2-3-33-0------3-----------------------|
E|0---------------3-33-0-3~~--0--------------------------------------------|

                                   Play Twice
E|-----------------------------|-------------------------------------------|
B|-----------------------------|-0-0-0-5~~--7-7-7-7/2~~--------------------|
G|-----------------------------|-----------------------------------5-55/2~~|
D|-2-2-2-0---------------------|-------------------------2---3-33----------|
A|---------0-------------3-33/0|-------------------------------------------|
E|-------------0---1-11--------|-------------------------------------------|


E|-------------------------------------------------------------------------|
B|---------------------------------------------3-5-55---5------------------|
G|---2-22-4-5-55-2----------------2-22-4--5-55--------5--------------------|
D|-2---------------5-55-2-5~~---2------------------------------------------|
A|-------------------------------------------------------------------------|
E|-------------------------------------------------------------------------|

                                         Play Twice
E|---5555----------------------------|-------------------------------------|
B|-5------55---555-------------------|0-0-0-5~~--7-7-7-7/2~~---------------|
G|5----------5------52~~-------5-55\2|------------------------------55/2~~-|
D|----------------------2--3-33------|---------------------2---3-33--------|
A|-----------------------------------|-------------------------------------|
E|-----------------------------------|-------------------------------------|

E|--3-3-3-8~~-10-10-10-10\5~~--1---2-22--8--10-8\5~~-----------------------|
B|-------------------------------------------------------------------------|
G|-------------------------------------------------------------------------|
D|--------------------------------------------------------------5-55/2~~---|
A|----------------------------------------------------2---3-33-------------|
E|-------------------------------------------------------------------------|
Suggest correction
Give kudos to tab author, rate the tab!
1 2 3 4 5
comments
print report bad tab
1 comment total.
0 reply
pops974 10 wrote on June 12 2015, 02:56 pm

very good Tab

guest
You may want to rate the tab now too:
select rating
Please do not post tabs as comments. Select "correction" instead!