Oops, an error
Loading. Please wait.

In This City Bass Tab

version 1
version 1

Whole song

Interactive

243 views 1 this week
no commentswrite comment
1 2 3 4 5
please rate
add to favorites
launch autoscroll
font size
0
reset
guitar tuner
Tab Pro tools
  • play this tab
  • loop segment
  • change instrument
  • show fretboard
  • metronome
×
Best way to learn
"In This City"
Autoscroll
slow
fast
+/-
esc
set tempo
stop
Contributor
Difficulty
novice
Band: Spiderbait
Song: In This City
Additional Info: This is taken from my Powertab, if you wish for a copy email me
(georgephillips001@hotmail.com) or download it off The Power Tab Archive (www.powertabs.net)

Standard Tuning: EADGBe

Key: C Major
Tempo: Free Time

Intro
		Accel.
 (H)  H       W          W          W
|----------|----------|----------|----------|
|----------|----------|----------|----------|
|-----7----|-(7)------|-(7)------|-(7)------|
|----------|----------|----------|----------|

Verse
Tempo: 198 bpm
  E E E Q   E E E    E  E E Q   E E E   x4
|-----------------|-------------------|
|-----------------|-------------------|
|-7-7-7-5---5-5-7-|-(7)-7-7-5---5-5-5-|
|-----------------|-------------------|

Chorus
  E  E  E  Q    E  E  E    E  E E Q   E E E   x4
|-----------------------|-------------------|
|-----------------------|-------------------|
|-12-12-12-10---10-10-5-|-(5)-5-5-7---7-7-7-|
|-----------------------|-------------------|

Verse
Repeat Verse Riff 4x

Chorus
Repeat Chorus Riff 4x

Bridge
  Q   E Q   E Q   Q   E Q   E Q   Q    E  Q    E  Q    Q    E  Q    E  Q    x4
|---------------|---------------|--------------------|--------------------|
|---------------|---------------|--------------------|--------------------|
|-7---7-7---7-7\|\5---5-5---5-5/|/10---10-10---10-10/|/12---12-12---12-12\|
|---------------|---------------|--------------------|--------------------|

Verse
Repeat Verse Riff 4x

Out-Chorus
Repeat Chorus riff 3x
Then
  E  E  E  Q    E  E  E    E  E E Q   E Q    
|-----------------------|------------------||
|-----------------------|------------------||
|-12-12-12-10---10-10-5-|-(5)-5-5-7---7-7\-||
|-----------------------|------------------||

Then End.

Tab Legend:
(x)= Tied Note
 \ = Slide Down
 / = Slide Up

Time Legend:
W = Whole Note          (4 beats)
H.= Half Note dotted    (3 beats)
H = Half Note           (2 beats)
Q.= Quarter Note dotted (1.5 beats)
Q = Quarter Note        (1 beat)
E = Eighth Note         (.5 beat)
S = Sixteenth Note      (.25 beat)
comments
We did not receive enough feedback on this tab! Please rate:
print report bad tab
1 2 3 4 5
I want to post or [tab]
guest
You may want to rate the tab now too:
select rating
Please do not post tabs as comments. Select "correction" instead!