Oops, an error
Loading. Please wait.

Old Man Sam Bass Tab

version 1
version 1

Whole song

Interactive

506 views 1 this week
no commentswrite comment
1 2 3 4 5
3 more votes to show rating
add to favorites
launch autoscroll
font size
0
reset
guitar tuner
Autoscroll
slow
fast
+/-
esc
set tempo
stop
Help us to improve Ultimate-Guitar.com Take our survey!
×
Difficulty
intermediate
Tuning: E-A-D-G
x = muted note
/ = slide up
\ = slide down

		*Intro and Verse*

|----12----13----14----15-|
|-------------------------|
|-10----11----12----13----|
|-------------------------|

	x3

|----15----15----15----15----15----15----15----14-|
|-------------------------------------------------|
|-13----13----13----13----13----13----13----12----|
|-------------------------------------------------|

	Then this:

|----15----15----15----15----15----15-15-15--14---|
|-------------------------------------------------|
|-13----13----13----13----13----13----13-13--12---|
|-------------------------------------------------|

		*Verse 1*
	x2

|----15----15----15----15----15----15----15----14-|
|-------------------------------------------------|
|-13----13----13----13----13----13----13----12----|
|-------------------------------------------------|

|----12----12----12----12----12----12----12----14-|
|-------------------------------------------------|
|-10----10----10----10----10----10----10----12----|
|-------------------------------------------------|

		*Verse 2*
	x( I'm not shure how much you must repeat this one )

|--------------------------------------|
|--------------------------------------|
|--------------------------------------|
|-5--5-5---1-1-1-1---3--3-3-3--xx-3-3--|

		*Verse 3*

|-----------------------------|
|-----------------------------|
|-------------------------3---|
|-3--5-3--5-3-5-3--5-3--5-----|

|---------------xxx--xxx--|
|---------------xxx--xxx--|
|---------------xxx--xxx--|
|-3--5-3--5-3-5-xxx/\xxx--|
		---> those x's are played with the short drumriff

		That's all !! this is very easy and fun to play,

				...Red Hair Jimmy ...
Suggest correction
Give kudos to tab author, rate the tab!
1 2 3 4 5
comments
print report bad tab
guest
You may want to rate the tab now too:
select rating
Wanna post a correction for this tab? Suggest correction