Oops, an error
Loading. Please wait.

Put It Down Bass Tab

version 2
version 2

Whole song

66 views 1 this week
no commentswrite comment
1 2 3 4 5
please rate
add to favorites
launch autoscroll
font size
0
reset
guitar tuner
Tab Pro tools
  • play this tab
  • loop segment
  • change instrument
  • show fretboard
  • metronome
×
Best way to learn
"Put It Down"
Autoscroll
slow
fast
+/-
esc
set tempo
stop
Contributor
Song: Put It Down 
Artist: Spiderbait
Album: Tonight Alright
Tabbed by: Patrick Gamache

G|----------------|----------------|----------------|----------------|
D|----------------|----------------|----------------|----------------|
A|----------------|----------------|7-h-9-9-9-9-9-9-|7-h-9-9-9-9-9-9-|
E|7-h-9-9-9-9-9-9-|7-h-9-9-9-9-9-9-|----------------|----------------|
x4

G|----------------|----------------|
D|----------------|----------------|
A|7-h-9-9-9-9-9-9-|7-h-9-9-9-9-9-9-|
E|----------------|----------------|
x1

G|----------------|----------------|----------------|----------------|
D|----------------|----------------|----------------|----------------|
A|----------------|----------------|7-h-9-9-9-9-9-9-|7-h-9-9-9-9-9-9-|
E|7-h-9-9-9-9-9-9-|7-h-9-9-9-9-9-9-|----------------|----------------|
x4

G|----------------|----------------|
D|----------------|----------------|
A|7-h-9-9-9-9-9-9-|7-h-9-9-9-9-9-9-|
E|----------------|----------------|
x1

G|----------------|----------------|
D|--------^-------|----------------|
A|^-------7-----7-|^---------------|
E|5---5-5---------|9---9-9-9-9-9-9-|
x4

G|----------------|----------------|----------------|----------------|
D|----------------|----------------|----------------|----------------|
A|----------------|----------------|7-h-9-9-9-9-9-9-|7-h-9-9-9-9-9-9-|
E|7-h-9-9-9-9-9-9-|7-h-9-9-9-9-9-9-|----------------|----------------|
x7

G|----------------|----------------|
D|----------------|----------------|
A|7-h-9-9-9-9-9-9-|7-h-9-9-9-9-9-9-|
E|----------------|----------------|
x1

G|----------------|----------------|
D|--------^-------|----------------|
A|^-------7-----7-|^---------------|
E|5---5-5---------|9---9-9-9-9-9-9-|
x4

G|----------------|----------------|
D|7---------------|----------------|
A|----7-7---7-7-7-|9---------------|
E|----------------|----9-9---9-9-9-|
x4

G|----------------|----------------|
D|7---------------|----------------|
A|----7-7---7-7-7-|9---------------|
E|----------------|----9-9-9-9-7-9~|
x1

G|----------------|----------------|
D|----------------|----------------|
A|----------------|----------------| 
E|9-9-9-9-9-9-9-9-|9-9-9-9-9-9-9-9-|
x4

G|----------------|----------------|
D|--------^-------|----------------|
A|^-------7-----7-|^---------------|
E|5---5-5---------|9---9-9-9-9-9-9-|
x8

G|----------------|----------------|
D|7---------------|----------------|
A|----7-7---7-7-7-|9---------------|
E|----------------|----9-9---9-9-9-|
x3

G|----------------|----------------|----------------|----------------|
D|7---------------|----------------|----------------|----------------|
A|----7-7---7-7-7-|9---------------|----------------|----------------|
E|----------------|----9-9-9-9-7-9~|9-9-9-9-9-9-9-9-|9-9-9-9-9-9-9-9-|
x1

For anyone who plays this song and wants to try the cool little guitar fill
that plays during the post-chorus, I tabbed that out as well. I tabbed
it starting on the fourth fret of the A string for clarity, but I think it 
is actually easier to play starting on the ninth fret of the E string.  

G|----------------|
D|----4-5-4-------| 
A|4-7-------4-7-4-|
E|----------------|

The other tab had the wrong notes all across the board, so I decided to 
make my own tab tonight. Hope you enjoy!
comments
We did not receive enough feedback on this tab! Please rate:
print report bad tab
1 2 3 4 5
I want to post or [tab]
guest
You may want to rate the tab now too:
select rating
Please do not post tabs as comments. Select "correction" instead!