Oops, an error
Loading. Please wait.

Stevie Bass Tab

version 2
version 2

Whole song

111 views 1 this week
no commentswrite comment
1 2 3 4 5
please rate
add to favorites
launch autoscroll
font size
0
reset
guitar tuner
Autoscroll
slow
fast
+/-
esc
set tempo
stop
Help us to improve Ultimate-Guitar.com Take our survey!
×
Author
Difficulty
intermediate
-----------------------------------------------------------------------
Stevie - Spiderbait
-----------------------------------------------------------------------

Tabbed By: Town
E-mail: neilson_99@hotmail.com

Tuning: Standard

Intro/Verse
G|--------------------------------------------------------------------|
D|--------------------------------------------------------------------|
A|--------------------------------------------------------------------|
E|-5/10101010-1010-101010-10\5555-55-555-5----------------------------|

Pre-chorus X2
G|--------------------------------------------------------------------|
D|--------------------------------------------------------------------|
A|--------------------------------------------------------------------|
E|-7777-77-777-7/10101010-1010-101010\5555-55-555-5555-55-555---------|

Chorus
G|--------------------------------------------------------------------|
D|--------------------------------------------------------------------|
A|-------33-3----------33-3----------33-3----------33-3---------------|
E|-555-5------33/555-5------33/555-5------33/555-5------33/-----------|

Outro
G|--------------------------------------------------------------------|
D|--------------------------------------------------------------------|
A|-------33-3----------33-3----------33-3----------33-3---------------|
E|-555-5------33/555-5------33/555-5------33/555-5------33/5~---------|

Listen to song for correct timing.

/ Slide up
\ Slide down
h Hammer-on
p Pull-off
~ Vibrato
+ Harmonic
X Mute note
=======================================================================
Suggest correction
Give kudos to tab author, rate the tab!
1 2 3 4 5
comments
print report bad tab
guest
You may want to rate the tab now too:
select rating
Please do not post tabs as comments. Select "correction" instead!