Oops, an error
Loading. Please wait.

Happy Endings Only Happen In Movies Tab

4,868 views 3 this week
5 commentsread comments
1 2 3 4 5
excellent!
x 4
add to favorites
launch autoscroll
font size
0
reset
how to read this tab
guitar tuner
Autoscroll
slow
fast
+/-
esc
set tempo
stop
Help us to improve Ultimate-Guitar.com Take our survey!
×
Author
Difficulty
Tuning
novice
C G C F A D
Tabbed by:
Aaron

Tuning:
Drop C

this tab is probably not 100% accurate but id say its about 90%.
feel free to rate, comment and/or correct it.


intro
D|--------------------------------------------------------------------------|
A|--------------------------------------------------------------------------|
F|--------------------------------------------------------(7)(7)------------|
C|0~~----0~~----------------------------------------------------------------|
G|0~~----0~~---0---------5-----5---------5-----5\-00000-0------------5---5--|
C|0~~----0~~---0-0-0-2h3---0-0---0-7h8-0---0-7----00000-0--------7h8---0----|
               . . .       . .   .     .   .      ..... .              .

D|--------------------------------------------------------|
A|--------------4-----------------------------------------|
F|--------------7-----------------------------------------|
C|-----------------------------------------4h5p4----------|
G|--------5---------------5-----5\-00000-0-------5--------|
C|0-0-2h3---0-0---0-2h3-0---0-3----00000-0---------7-5-8--|


0:23
"this place is full of lies!!"
D|------------------------------------------------------------------------------|
A|------------------------------------------------------------------------------|
F|---------------------------------------------(7)-------------8888-12121212----|
C|------------------------------------------------------------------------------|
G|0-00000-0-0-00--000-00---------------0-00000-----0-00-000-00-6666-10101010----|
C|0-00000-0-0-00--000-00-5h8-0-5h8-0-4-0-00000-----0-00-000-00------------------|
  . ..... . . ..  ... ..     .     .   . .....     . .. ... ..

2x
0:34
D|------------------------------------------------------------------------------|
A|------------------------------------------------------------------------------|
F|--------------------------------------------------------------------5555------|
C|--------------------------------------------------------------8-5--------3h5--|
G|000-0--0-0-0-0000-0-000-0--------8888-5-000-0--0--0-0-000-0-0-----7-----------|
C|000-0--0-0-0-0000-0-000-0--8-5-0--------000-0--0--0-0-000-0-0-----------------|
  ... .        ....   ... .               ... .         ... .


0:49-1:04
this part is hard to keep up with but i 
tried. you can change the rhythm as necessary.
D|---------------------------------------------------------------------------|
A|---------------------------------------------------------------------------|
F|---------------------------------------------------------------------------|
C|---------------------------------------------------------------------------|
G|000-0-0-000-000-00-000-0-0-00-00-00----------------------------------------|
C|000-0-0-000-000-00-000-0-0-00-00-00----------------------------------------|
  ... .       ...    ... .      ..

1:04
D|----------------------------------------------------------------------------------------------|
A|--------------------------------101010101010101010101010--------------------------------------|
F|77777777777777777777777777777777------------------------9999-1212121212121212-1414141414141414|
C|--------------------------------7-7-7-7-7-7-7-7-7-7-7-7---------------------------------------|
G|55555555555555555555555555555555------------------------7777-1010101010101010-1212121212121212|
C|----------------------------------------------------------------------------------------------|


1:14-1:23
D|--------------------------------------------------------------------------------------------|
A|--------------------------------101010101010101010101010-13131313131313131313131313131313---|
F|77777777777777777777777777777777------------------------------------------------------------|
C|--------------------------------7-7-7-7-7-7-7-7-7-7-7-7--10101010101010101010101010101010---|
G|55555555555555555555555555555555------------------------------------------------------------|
C|--------------------------------------------------------------------------------------------|

1:24
D|----------------------------------------------------------------------------------|
A|15-15-15-15------15-15-15-15------15-15-15-15-15-15-15-15------15-15-15-15-15-----|
F|----------------------------------------------------------------------------------|
C|12-12-12-12------12-12-12-12------12-12-12-12-12-12-12-12------12-12-12-12-12-----|
G|-------------00---------------00---------------------------00-----------------000-|
C|-------------00---------------00---------------------------00-----------------000-|
               ..               ..                           ..                 ...
1:29-2:10
play both these parts back to back 4x
D|------------------------------------------------|----------------------------------------|
A|------------------------------------------------|----------------------------------------|
F|------------------------------------------------|----------------------------------------|
C|--------------------------------7---------------|------------------------------------(5)-|
G|-----------------------1------5---5-8-5---------|-----------------0-----5p0--------------|
C|000-0-0-0-00-00--5-1-0---3--------------0000-0--|000-0-0-0-00-00--1b-00-----00-3-6-00----|
  ... .   .                               ....     ... .   .        .  ..     ..     ..

2:10-2:30
2x
D|----------------------------------------------------------------------------8----------|
A|----------------------------------4-------------------------7------6/7--------6--------|
F|--------------------7-------------7----------------77-------10-----9/10---------7------|
C|----------------7-----7-------------------77-88-------5---------------------------8-7--|
G|000-0-------5h8---8-----8---000-0---------------77------000----000------0-0------------|
C|000-0-0--00-----------------000-0---0-0-0---------------000----000------0-0------------|

D|------------------------|
A|------------------------|
F|------------------------|
C|777-8888-5555-10101010--|
G|777-8888-5555-10101010--|
C|777-8888-5555-10101010--|

2:30
D|---------------------------------------------------------------------------|
A|---------------------------------------------------------------------------|
F|---------------------------------------------------------------------------|
C|12-12--7-7-8-88-8888-555-888-77-1010101010101010---------------------------|
G|12-12--7-7-8-88-8888-555-888-77-1010101010101010---------------------------|
C|12-12--7-7-8-88-8888-555-888-77-1010101010101010---------------------------|

2:35
D|---------------------------------------------------------------------------|
A|---------------------------------------------------------------------------|
F|---------------------------------------------------------------------------|
C|12-12--7-7-8-88-8888-------------------------------------------------------|
G|12-12--7-7-8-88-8888-------5----------7-10---------------------------------|
C|12-12--7-7-8-88-8888-5-8-7---7--7-8-7--------------------------------------|

2:40
D|---------------------------------------------------------------------------|
A|---------------------------------------------------------------------------|
F|---------------------------------------------------------------------------|
C|12-12--7-7-8-88-8888-555-888-77-1010101010101010---------------------------|
G|12-12--7-7-8-88-8888-555-888-77-1010101010101010---------------------------|
C|12-12--7-7-8-88-8888-555-888-77-1010101010101010---------------------------|

2:45
D|---------------------------------------------------------------------------|
A|---------------------------------------------------------------------------|
F|9999-10101010-12121212-1414141414141414-12121212-1717171717----------------|
C|---------------------------------------------------------------------------|
G|7777-8-8-8-8--10101010-1212121212121212-10101010-1515151515----------------|
C|---------------------------------------------------------------------------|

2:50-3:10
D|---------------------------------------|------------------------------------------|
A|---------------------------------------|------------------------------------------|
F|---------------------------------------|------------------------------------------|
C|0-0-0-0--0-0-0-0--8-8-8-8--10-10-10-7--|0-0-0-0--0-0-0-0--8-8-8-8-5h7-5-----------|
G|0-0-0-0--0-0-0-0--8-8-8-8--10-10-10-7--|0-0-0-0--0-0-0-0--8-8-8-8-------8-7--0-0--|
C|0-0-0-0--0-0-0-0--8-8-8-8--10-10-10-7--|0-0-0-0--0-0-0-0--8-8-8-8------------0-0--|

2x
3:10-3:30
D|---------------------------------------------------------------------------|
A|---------------------------------------------------------------------------|
F|---------------------------------------------------------------------------|
C|0-0-0-0--0-0-0-0--8-8-8-8--5-5-5-7-----------------------------------------|
G|0-0-0-0--0-0-0-0--8-8-8-8--5-5-5-7-----------------------------------------|
C|0-0-0-0--0-0-0-0--8-8-8-8--5-5-5-7-----------------------------------------|


4x
3:30-3:51
D|---------------------------------------------------------------------------|
A|---------------------------------------------------------------------------|
F|---------------------------------------------------------------------------|
C|---------------------------------------------------------------------------|
G|---5h8p5--5h8p5---5h8---5h8p5---------55-----------------------------------|
C|000-----00-----000---000-----00-55-88----77--------------------------------|
  ...     ..     ...   ...     ..

3:51-4:01
D|-------------------------------------------------------------------------------|
A|-------------------------------------------------------------------------------|
F|-------------------------------------------------------------------------------|
C|-------------------------------------------------------------------------------|
G|00--0-0-0-000-000-0-0-0-0-------55----0-0-000-00000-0-00---0---0-------55------|
C|00--0-0-0-000-000-0-0-0-0-55-88----77-0-0-000-00000-0-00-0-0-0-0-55-88----77---|
  ..  . . . ... ... . . . .             . . ... ..... . ..   .   .

2x
4:01-4:11
D|---------------------------------------------------------------------------|
A|---------------------------------------------------------------------------|
F|---------------------------------------------------------------------------|
C|---3h7p3--3h7p3---3h7---3h7p3----------------------------------------------|
G|--------------------------------------55-----------------------------------|
C|000-----00-----000---000-----00-55-88----77--------------------------------|
  ...     ..     ...   ...     ..

4:11
D|---------------------------------------------------------------------------|
A|---------------------------------------------------------------------------|
F|---------------------------------------------------------------------------|
C|0~~------------------------------------------------------------------------|
G|0~~-000-0------------------------------------------------------------------|
C|0~~-000-0-0-00-00----------------------------------------------------------|
      ... .


http://www.invoguerecords.com/ 
http://www.youtube.com/spieslikeusband 
http://www.reverbnation.com/spieslikeus 
http://www.last.fm/music/Spies+Like+Us 
Suggest correction
What's this?
You can suggest a correction to this tab. Community and Mods will review your correction and vote to approve or reject it.
comments
print report bad tab
5 comments total. Showing first comments.
0 reply
lordzero545 31 wrote on October 23 2011, 09:51 pm

GREAT TAB DUDE!!

0 reply
minkar_man72 705 wrote on November 5 2011, 11:56 am

thanks man!

0 reply
MysticXTreeMist 39 wrote on May 14 2012, 05:12 pm

this shit is pretty much spot on, great job

guest
You may want to rate the tab now too:
select rating
Please do not post tabs as comments. Select "correction" instead!