Oops, an error
Loading. Please wait.

Dogs On A Doe bass

177 views 1 this week
no commentswrite comment
1 2 3 4 5
3 more votes to show rating
add to favorites
×
Save as Personal and add changes to this tab that will be seen only by you. Learn more ›
×
You can save this tab as Personal to edit and correct it or add notes. All changes will be seen only by you. Learn more »
launch autoscroll
font size
0
reset
guitar tuner
edit
Autoscroll
slow
fast
+/-
esc
set tempo
stop
Author
Artist - Spin Doctors
Song - Dogs on a Doe
Album - You've Got To Believe In Something (Track 3)
Bassist - Mark White
Tabber - Str84ever
Tuning - Standard

There is a severe lack of Spin Doctors tabs for such a great band! This is one i
especially like so i decided to share it with you.

Enjoy!

Intro - 0:00 - 0:14

G|-------------------------------|
D|-------------------------------|
A|-----------------3----5--------|
E|-5---3---2---0-------------5---|

No bass - "Riches and the roads bring brigands hither"

Verse 1 0:27 - "Brigands deck their ears with hoops of silver" etc.

G|---------------------------------------|
D|---------------------------------------|
A|-5---6---5----5-6-5---------2---3---2--|
E|---------------------8--5--------------|

Then the verse changes were the drums start the floor tom beat.

0:40

G|-------------------------------------------------|
D|-------------------------------------------------|
A|-------------2--2--2--2--3--3--3--3--2--2--2--2--|
E|-5--5--5--5--------------------------------------|

0:54

G|------------------------------------------------|
D|------------------------------------------------|
A|-5--5--5--5--6--6--6--6--5--5--5--5---5-6-5-----|
E|---------------------------------------------8--|

1:00

G|-------------------------------------------------|
D|-------------------------------------------------|
A|-------------2--2--2--2--3--3--3--3--2--2--2--2--|
E|-5--5--5--5--------------------------------------|


Chorus - 1:07 "Angels above..."

G|-------------------------------------------------|
D|-------------------------------------------------|
A|-------------------------------------------------|
E|-5--5--5--5--3--3--3--3--2--2--2--2--0--0--0--0--|


G|---------------------------|
D|---------------------------|
A|-3--3--3--3--5--5--5--5----|
E|-------------------------5-|


Post Chorus - 1:20 "Dogs on a doeeee"

G|-------------------------------------------------|
D|-------------------------------------------------|
A|-------------2--2--2--2--3--3--3--3--2--2--2--2--|
E|-5--5--5--5--------------------------------------|


Verse 2 - 1:34

G|-------------------------------------------------|
D|-------------------------------------------------|
A|-------------2--2--2--2--3--3--3--3--2--2--2--2--|
E|-5--5--5--5--------------------------------------|


G|------------------------------------------------|
D|------------------------------------------------|
A|-5--5--5--5--6--6--6--6--5--5--5--5---5-6-5-----|
E|---------------------------------------------8--|


G|-------------------------------------------------|
D|-------------------------------------------------|
A|-------------2--2--2--2--3--3--3--3--2--2--2--2--|
E|-5--5--5--5--------------------------------------|


Chorus - 2:00

G|-------------------------------------------------|
D|-------------------------------------------------|
A|-------------------------------------------------|
E|-5--5--5--5--3--3--3--3--2--2--2--2--0--0--0--0--|


G|---------------------------|
D|---------------------------|
A|-3--3--3--3--5--5--5--5----|
E|-------------------------5-|


Bridge - 2:14

G|------------------------------|
D|------------------------------|
A|------------------------------|
E|-5-5-5----5-5-5----5-5-5---5--|


Guitar solo - 2:27

G|-------------------------------------------------|
D|-------------------------------------------------|
A|-------------2--2--2--2--3--3--3--3--2--2--2--2--|
E|-5--5--5--5--------------------------------------|


No bass again.

Verse 3 - 2:54 - exact same as Verse 1.

G|------------------------------------------|
D|------------------------------------------|
A|-5---6---5----5-6-5---------2---3---2-----|
E|---------------------8--5-----------------|


G|-------------------------------------------------|
D|-------------------------------------------------|
A|-------------2--2--2--2--3--3--3--3--2--2--2--2--|
E|-5--5--5--5--------------------------------------|


G|------------------------------------------------|
D|------------------------------------------------|
A|-5--5--5--5--6--6--6--6--5--5--5--5---5-6-5-----|
E|---------------------------------------------8--|


G|-------------------------------------------------|
D|-------------------------------------------------|
A|-------------2--2--2--2--3--3--3--3--2--2--2--2--|
E|-5--5--5--5--------------------------------------|


Chorus - 3:34

G|-------------------------------------------------|
D|-------------------------------------------------|
A|-------------------------------------------------|
E|-5--5--5--5--3--3--3--3--2--2--2--2--0--0--0--0--|


G|--------------------------------------------|
D|--------------------------------------------|
A|-3--3--3--3--5--5--5--5---------------------|
E|-------------------------5--5--5--5--5--5--5|


Outro - 4:01 - End

G|-------------------------------------------------|
D|-------------------------------------------------|
A|-3--3--3--3--2--2--2--2--------------------------|
E|-------------------------5--5--5--5--5--5--5--5--|

Then are some fills but its mostly just above.

E.g. One of them in the song is below but just improv.

G|-7--5-----|
D|-------7--|
A|----------|
E|----------|

The end.

Any comments/complaints/questions send to str84ever@Hotmail.com or write on my UG profile.

            
            
Suggest correction
Creating personal tab
Creating personal tab
You can edit any tab online and save it as your Personal.

You can edit, replace or remove any tab part or add personal notes – all changes will be seen only by you.

Personal tabs can be accessed anytime from any device, even offline.
Learn more »
Give kudos to tab author, rate the tab!
1 2 3 4 5
comments
print report bad tab
guest
You may want to rate the tab now too:
select rating
Wanna post a correction for this tab? Suggest correction