Oops, an error
Loading. Please wait.

Little Miss Cant Be Wrong bass

version 1
version 1

Whole song

Interactive

6,504 views 9 this week
5 commentsread comments
1 2 3 4 5
x 12
add to favorites
×
Save as Personal and add changes to this tab that will be seen only by you. Learn more ›
×
You can save this tab as Personal to edit and correct it or add notes. All changes will be seen only by you. Learn more »
launch autoscroll
font size
0
reset
guitar tuner
edit
Autoscroll
slow
fast
+/-
esc
set tempo
stop
Author
Difficulty
                             ---Spin Doctors------------|
                       ---Little Miss Can't Be Wrong----|


Okay....first of all there really isn't much to this song at all!
This song only has 3 notes in the entire song.....I just noticed that pplz haven't been 
to tab it....so just for those people that need help.....here ya go!

I'll do this as simple as any1 can possibly do...


Intro:

G-------------------------------------------------------|
D-------------------------------------------------------|
A-------------------5---5---5---5---------3---3---3---3-|
E--3---3---3---3----------------------------------------|

And repeat this about 3 times!

Then the rest of the song is playing those 3 notes.....


Chorus:


G-------------------------------------------------------|
D-------------------------------------------------------|
A-------------------5---5---5---5---------3---3---3---3-|
E--3---3---3---3----------------------------------------|


Outro:


G-------------------------------------------------------|
D-------------------------------------------------------|
A-------------------5---5---5---5---------3---3---3---3-|
E--3---3---3---3----------------------------------------|

            
            
Suggest correction
Creating personal tab
Creating personal tab
You can edit any tab online and save it as your Personal.

You can edit, replace or remove any tab part or add personal notes – all changes will be seen only by you.

Personal tabs can be accessed anytime from any device, even offline.
Learn more »
comments
print report bad tab
5 comments total. Showing first comments.
+1 reply
jsowads 10 Jul 04, 2007 05:44 PM

you missed the pops

+1 reply
MattallicA80 10 May 16, 2013 02:27 AM

There is sooooooo much more to this song than that!

+1 reply
MattallicA80 10 May 16, 2013 02:27 AM

There is sooooooo much more to this song than that!

guest
You may want to rate the tab now too:
select rating
Wanna post a correction for this tab? Suggest correction