Oops, an error
Loading. Please wait.
We have Chord Pro version of Two Princes.
It's the closest thing you can get to the original song and it has interactive parts. Check out the tab »
×
23,384 views 57 this week
1 commentread comment
1 2 3 4 5
x 4
add to favorites
×
Save as Personal and add changes to this tab that will be seen only by you. Learn more ›
×
You can save this tab as Personal to edit and correct it or add notes. All changes will be seen only by you. Learn more »
launch autoscroll
font size
0
reset
guitar tuner
backing track
0:00
0:00
edit
Autoscroll
slow
fast
+/-
esc
set tempo
stop
Author
Difficulty
intermediate
Gtr 1 (E A D G) - 'Standard'

[Intro]
(Moderate Rock Q=108)
 4/4
(Gtr 1)
   E e S S S S +S  S S S S S S S   S S e S S S S S S S S S S S S
G|-------------------------------|--------------------------------|
D|-------------------------------|--------------------------------|
A|-5-5-x-x-x---------------------|---------------------------5----|
E|-----------7-(7)-7-7-----x-7-3-|-5p0-5-x-x-x-3---5s7-x-7-5---7--|

   S S e S S S S S S a S S S S S S   S S e S S S S S S S S S S S S
G|---------------------------------|-------------------------------|
D|---------------------------------|-------------------------------|
A|-5---5-x-x-x---------------------|---------------------------5---|
E|---7---------7---5-5s7---7-7---3-|-5-0-5-x-x-5-3---5s7-x-7-5---7-|

   S S e S S S S +S  S S S S S S S   E e S S S S S S S S S S S S
G|---------------------------------|-----------------------------|
D|---------------------------------|-----------------------------|
A|-5s7-5-x-x-x---------------------|-------------------------5---|
E|-------------7-(7)-7-7-----x-7-3-|-5-5-x-x-x-3---5s7-x-7-5---7-|

   S S e S S S S S S S S S S S S   E e S S S S S S S S S S S S
G|-------------------------------|-----------------------------|
D|-------------------------------|-----------------------------|
A|-5---5-x-x-x-------------------|-------------------------5---|
E|---7---------7---7-7-----x-7-3-|-5-5-x-x-x-3---5s7-x-7-5---7-|

[Verse]
     E e S S S S +S  S S S S S S S   S S e S S S S S S S S S S S S
G|--------------------------------|--------------------------------|
D|o-------------------------------|--------------------------------|
A|o-5-5-x-x-x---------------------|---------------------------5----|
E|------------7-(7)-7-7-----x-7-3-|-5p0-5-x-x-x-3---5s7-x-7-5---7--|

   S S e S S S S S S a S S S S S S   S S e S S S S S S S S S S S S
G|---------------------------------|-------------------------------|
D|---------------------------------|-------------------------------|
A|-5---5-x-x-x---------------------|---------------------------5---|
E|---7---------7---5-5s7---7-7---3-|-5-0-5-x-x-5-3---5s7-x-7-5---7-|

   S S e S S S S +S  S S S S S S S   E e S S S S S S S S S S S S
G|---------------------------------|-----------------------------|
D|---------------------------------|-----------------------------|
A|-5s7-5-x-x-x---------------------|-------------------------5---|
E|-------------7-(7)-7-7-----x-7-3-|-5-5-x-x-x-3---5s7-x-7-5---7-|

   S S e S S S S S S S S S S S S   E e S S S S S S S S S S S S
G|-------------------------------|-----------------------------|
D|-------------------------------|-----------------------------|
A|-5---5-x-x-x-------------------|-------------------------5---|
E|---7---------7---7-7-----x-7-3-|-5-5-x-x-x-3---5s7-x-7-5---7-|

   1.
   E e S S S S +S  S S S S S S S   S S e S S S S S S S S S S S S
G|-------------------------------|-------------------------------|
D|-------------------------------|-------------------------------|
A|-5-5-x-x-x---------------------|---------------------------5---|
E|-----------7-(7)-7-7-----x-7-3-|-5p0-5-x-x-x-3---5s7-x-7-5---7-|

   S S e S S S S S S a S S S S S S   S S e S S S S S S S S S S S S
G|---------------------------------|--------------------------------|
D|---------------------------------|-------------------------------o|
A|-5---5-x-x-x---------------------|---------------------------5---o|
E|---7---------7---5-5s7---7-7---3-|-5-0-5-x-x-5-3---5s7-x-7-5---7--|

   2.
   Q  S E S +S  S S S S S S S   S S E E. S S S S S S S S S
G|----------------------------|-------7---------------------|
D|----------------------------|-----------------------------|
A|------------------------5---|-5---5----5---3---0-5-5---x--|
E|-3--3-3-3-(3)-5s7-x-7-5---7-|---7-------------------------|

   S S E E S S S e S S S S S   W          H    H
G|---------------------------|----------|-----------|
D|-5p0---5-------------------|----------|-----------|
A|---------------------------|----------|-----------|
E|-----3---3-3---3-3-3-3-3-3-|-5--------|-5---------|

[Verse]
   E e S S S S +S  S S S S S S S   S S e S S S S S S S S S S S S
G|-------------------------------|-------------------------------|
D|-------------------------------|-------------------------------|
A|-5-5-x-x-x---------------------|---------------------------5---|
E|-----------7-(7)-7-7-----x-7-3-|-5p0-5-x-x-x-3---5s7-x-7-5---7-|

   S S e S S S S S S a S S S S S S   S S e S S S S S S S S S S S S
G|---------------------------------|-------------------------------|
D|---------------------------------|-------------------------------|
A|-5---5-x-x-x---------------------|---------------------------5---|
E|---7---------7---5-5s7---7-7---3-|-5-0-5-x-x-5-3---5s7-x-7-5---7-|

   S S e S S S S +S  S S S S S S S   E e S S S S S S S S S S S S
G|---------------------------------|-----------------------------|
D|---------------------------------|-----------------------------|
A|-5s7-5-x-x-x---------------------|-------------------------5---|
E|-------------7-(7)-7-7-----x-7-3-|-5-5-x-x-x-3---5s7-x-7-5---7-|

   S S e S S S S S S S S S S S S   E e S S S S S S S S S S S S
G|-------------------------------|-----------------------------|
D|-------------------------------|-----------------------------|
A|-5---5-x-x-x-------------------|-------------------------5---|
E|---7---------7---7-7-----x-7-3-|-5-5-x-x-x-3---5s7-x-7-5---7-|

[Guitar Solo]
   E e S S S S +S  S S S S S S S   E e S S S S S S S S S S S S
G|-------------------------------|-----------------------------|
D|-------------------------------|-----------------------------|
A|-5-5-x-x-5---------------------|-------------------------5---|
E|-----------7-(7)-7-7---x-x-7-3-|-5-5---x-5-3---5s7-x-7-5---7-|

   E e S S S S S S S S S S S S   S S e E S S S S S S S S S S
G|-----------------------------|-----------------------------|
D|-----------------------------|-----------------------------|
A|-5-5-x-x-5-------------------|---------------------7---5---|
E|-----------7---5h7-7-7-7-7-3-|-5p0-5---5-3---5s7-7---7---7-|

   S S S S E S S S S S S S S S S   S S E E S S S S S S S S S S
G|-------------------------------|-----------------------------|
D|-------------------------------|-----------------------------|
A|-7---5---5-5-------------------|-------------------------5---|
E|---7---7-----7---5-7-x-7-7---7-|-5p0-5---5-3---5s7-7-7-5---7-|

   S S e E S S S S S S S S S S   S S e E S S S S S S S S S S
G|-----------------------------|-----------------------------|
D|-----------------------------|-----------------------------|
A|-5---5---5-------------------|-------------------------5---|
E|---7-------7---7-7-5-7-7---7-|-5-0-5---5-3---5-7-5-7-5---7-|

   Q  S E S S S S S S S S S   S S E S S S S S S S S S S S S
G|--------------------------|-------7-7---------------------|
D|----3-3-------------------|-------------------------------|
A|--------------------------|-5---5-----5-5---5-5-0-5-5---0-|
E|-3------3---3-3-3-5-3-7-5-|---7---------------------------|

   S S E S S S S S S S S S S S S   E E E S S +S  S S S S S S S
G|-------------------------------|-----------------------------|
D|-5p0---5-5---------------------|-----4s7---------------------|
A|-------------------------------|---------------5s7-----5s7---|
E|-----3-----0-3---0-3-0-3-3-3-3-|-5-5-----5-(5)-----x-5-----0-|

   E E E S S S S S S S S S S   Q  +Q    E E e E
G|---------------------------|------------------|
D|-----4s7---5h7-------------|------------------|
A|---------------7---7---5-7-|------------------|
E|-5-5-------------5---5-----|-5--(5)----0s5---|

[Verse]
   E e S S S S +S  S S S S S S S   S S e S S S S S S S S S S S S
G|-------------------------------|-------------------------------|
D|-------------------------------|-------------------------------|
A|-5-5-x-x-x---------------------|---------------------------5---|
E|-----------7-(7)-7-7-----x-7-3-|-5p0-5-x-x-x-3---5s7-x-7-5---7-|

   S S e S S S S S S a S S S S S S   S S e S S S S S S S S S S S S
G|---------------------------------|-------------------------------|
D|---------------------------------|-------------------------------|
A|-5---5-x-x-x---------------------|---------------------------5---|
E|---7---------7---5-5s7---7-7---3-|-5-0-5-x-x-5-3---5s7-x-7-5---7-|

   S S e S S S S +S  S S S S S S S   E e S S S S S S S S S S S S
G|---------------------------------|-----------------------------|
D|---------------------------------|-----------------------------|
A|-5s7-5-x-x-x---------------------|-------------------------5---|
E|-------------7-(7)-7-7-----x-7-3-|-5-5-x-x-x-3---5s7-x-7-5---7-|

   S S e S S S S S S S S S S S S   E e S S S S S S S S S S S S
G|-------------------------------|-----------------------------|
D|-------------------------------|-----------------------------|
A|-5---5-x-x-x-------------------|-------------------------5---|
E|---7---------7---7-7-----x-7-3-|-5-5-x-x-x-3---5s7-x-7-5---7-|

   Q  S E S +S  S S S S S S S   S S E E. S S S S S S S S S
G|----------------------------|-------7---------------------|
D|----------------------------|-----------------------------|
A|------------------------5---|-5---5----5---3---0-5-5---x--|
E|-3--3-3-3-(3)-5s7-x-7-5---7-|---7-------------------------|

   S S E E S S S e S S S S S   W
G|---------------------------|------|
D|-5p0---5-------------------|------|
A|---------------------------|------|
E|-----3---3-3---3-3-3-3-3-3-|-5----|

   W          +E  Q  E +E  Q.
G|----------|-------------------|
D|----------|-------------------|
A|----------|-------------------|
E|-5--------|-(5)-5--5-(5)-5/---|

[Breakdown]
    Q.   E H      W
G|--------------|------|
D|--------------|------|
A|--------------|------|
E|-10----------|------|

   Wx5          H    E S  S  Q
G|------------|-------------12--|
D|------------|--------7-12------|
A|------------|------------------|
E|------------|------------------|

[Chorus]
   E e S S S S +S  S S S S S S S   S S e S S S S S S S S S S S S
G|-------------------------------|-------------------------------|
D|-------------------------------|-------------------------------|
A|-5-5-x-x-x---------------------|---------------------------5---|
E|-----------7-(7)-7-7-----x-7-3-|-5p0-5-x-x-x-3---5s7-x-7-5---7-|

   S S e S S S S S S a S S S S S S   S S e S S S S S S S S S S S S
G|---------------------------------|-------------------------------|
D|---------------------------------|-------------------------------|
A|-5---5-x-x-x---------------------|---------------------------5---|
E|---7---------7---5-5s7---7-7---3-|-5-0-5-x-x-5-3---5s7-x-7-5---7-|

   S S e S S S S +S  S S S S S S S   E e S S S S S S S S S S S S
G|---------------------------------|-----------------------------|
D|---------------------------------|-----------------------------|
A|-5s7-5-x-x-x---------------------|-------------------------5---|
E|-------------7-(7)-7-7-----x-7-3-|-5-5-x-x-x-3---5s7-x-7-5---7-|

   S S e S S S S S S S S S S S S   E e S S S S S S S S S S S S
G|-------------------------------|-----------------------------|
D|-------------------------------|-----------------------------|
A|-5---5-x-x-x-------------------|-------------------------5---|
E|---7---------7---7-7-----x-7-3-|-5-5-x-x-x-3---5s7-x-7-5---7-|

[Outro]
     E e S S S S +S  S S S S S S S   S S e S S S S S S S S S S S S
G|--------------------------------|--------------------------------|
D|o-------------------------------|--------------------------------|
A|o-5-5-x-x-x---------------------|---------------------------5----|
E|------------7-(7)-7-7-----x-7-3-|-5p0-5-x-x-x-3---5s7-x-7-5---7--|

   S S e S S S S S S a S S S S S S   S S e S S S S S S S S S S S S
G|---------------------------------|-------------------------------|
D|---------------------------------|-------------------------------|
A|-5---5-x-x-x---------------------|---------------------------5---|
E|---7---------7---5-5s7---7-7---3-|-5-0-5-x-x-5-3---5s7-x-7-5---7-|

   S S e S S S S +S  S S S S S S S   E e S S S S S S S S S S S S
G|---------------------------------|-----------------------------|
D|---------------------------------|-----------------------------|
A|-5s7-5-x-x-x---------------------|-------------------------5---|
E|-------------7-(7)-7-7-----x-7-3-|-5-5-x-x-x-3---5s7-x-7-5---7-|

   S S e S S S S S S S S S S S S   E e S S S S S S S S S S S S  (3x)
G|-------------------------------|------------------------------|
D|-------------------------------|-----------------------------o|
A|-5---5-x-x-x-------------------|-------------------------5---o|
E|---7---------7---7-7-----x-7-3-|-5-5-x-x-x-3---5s7-x-7-5---7--|


************************************

| x    Dead note
| (n)  Ghost note
| p    Pull-off
| h    Hammer-on
| /    Slide up

************************************

            
            
Suggest correction
Creating personal tab
Creating personal tab
You can edit any tab online and save it as your Personal.

You can edit, replace or remove any tab part or add personal notes – all changes will be seen only by you.

Personal tabs can be accessed anytime from any device, even offline.
Learn more »
comments
print report bad tab
1 comment total.
0 reply
MRFairbrother 2,890 Mar 30, 2013 10:26 AM

Thank you for this ...although not 100% accurate, it is a great representation. We need more Mark White bass transcriptions.

guest
You may want to rate the tab now too:
select rating
Wanna post a correction for this tab? Suggest correction