Oops, an error
Loading. Please wait.
We have Chord Pro version of Two Princes.
It's the closest thing you can get to the original song and it has interactive parts. Check out the tab »
×
16,142 views 18 this week
no commentswrite comment
1 2 3 4 5
x 8
add to favorites
×
Save as Personal and add changes to this tab that will be seen only by you. Learn more ›
×
You can save this tab as Personal to edit and correct it or add notes. All changes will be seen only by you. Learn more »
launch autoscroll
font size
0
reset
guitar tuner
backing track
0:00
0:00
edit
Autoscroll
slow
fast
+/-
esc
set tempo
stop
Author
                           ----Spin Doctors------|
                           -----Two Princes------|

Tabbed By :mucho-mum
e-mail:mucho_mum@hotmail.com

| /  slide up
| \  slide down
| h  hammer-on
| p  pull-off
| ~  vibrato
| +  harmonic
| x  Mute note

This (like many early 90's rock songs) is a real simple one. In this song there are 4 chords and 4 notes......
D,B,A,G...... The song goes like this...


Intro: (Drums)

G------------------------------------------------------------------------|
D------------------------------------------------------------------------|
A-5--5------2--2--2------------------------------------------------------|
E------------------------5--5-----3--3--3--3-----------------------------|

And repeat that part as many times as you need to...

Verses 1,2 and 3:

G------------------------------------------------------------------------|
D------------------------------------------------------------------------|
A-5--5-------2--2--2-----------------------------------------------------|
E-----------------------5--5-----3--3--3--3------------------------------|


Pre Chorus:

G------------------------------------------------------------------------|
D------------------------------------------------------------------------|
A---0----------0-------------0----------0--------------------------------|
E------------------------------------------------------------------------|

And in the pre-chorus let those 0's really ring out!


Chorus:

G------------------------------------------------------------------------|
D------------------------------------------------------------------------|
A--5--5-------2--2--2----------------------------------------------------|
E------------------------5--5-------3---3---3----------------------------|


Guitar Solo:

G------------------------------------------------------------------------|
D------------------------------------------------------------------------|
A--5--5------2--2--2-----------------------------------------------------|
E-------------------------5--5------3---3---3----------------------------|


Then the end of the solo:

G------------------------------------------------------------------------|
D------------------------------------------------------------------------|
A--0--0--0--0--0--0--0--0--0-------------0-------------------------------|
E------------------------------------------------------------------------|

And then thats all there is to it!
Enjoy!
Suggest correction
Creating personal tab
Creating personal tab
You can edit any tab online and save it as your Personal.

You can edit, replace or remove any tab part or add personal notes – all changes will be seen only by you.

Personal tabs can be accessed anytime from any device, even offline.
Learn more »
comments
print report bad tab
guest
You may want to rate the tab now too:
select rating
Wanna post a correction for this tab? Suggest correction