Oops, an error
Loading. Please wait.

All The Way Home Chords

7,977 views 12 this week
1 commentread comment
1 2 3 4 5
excellent!
x 7
add to favorites
launch autoscroll
font size
0
reset
transpose
0
reset
simplify chords
display chords
guitar tuner
Autoscroll
slow
fast
+/-
esc
set tempo
stop
Help us to improve Ultimate-Guitar.com Take our survey!
×
Author
...ALL THE WAY HOME... by Spinal Tap
----------------------..............

*from 'Break Like the Wind' (1992)*


Intro:

              D7
e|---------|---------------|----------0---------|
B|---------|-----3---------|----3---3------3----|
G|---------|----------5----|------5-------------|
D|---------|-----4------4--|------4----------4--|
A|----3-4--|--5------------|--5-----------------|
E|--5------|--------5------|-------------5------|

e|---------------|--0-----0------0-----|
B|-----3----3----|----3--------3----3--|
G|---------------|---------------------|
D|-----4------4--|------4--------4-----|
A|--5------------|--5------------------|
E|--------5------|-----------5---------|

Verse 1:

          D7
Well, I'm sitting here, beside the railway track,
                                    A7
Waiting for that train to bring you back.
             D7                          G                G#dim
If she's not on the 5:19, then I'm gonna know what sorrow means.
              D7        A7              (D7)
And I'm gonna cry, cry, cry, all the way home.

    D7
e|-----------------|--------------------|
B|-----3--------3--|--------3--------3--|
G|----------5------|----5--------5------|
D|-----4------4----|------4--------4----|
A|--5--------------|--5-----------------|
E|--------5--------|-----------5--------|

Chorus 1: 

    G                                 D7
e|---------------|-----------------|-----------------|-----------------|
B|-----3---------|--------3--------|-----3--------3--|--------3--------|
G|----------4----|----4-------4----|----------5------|----5-------5----|
D|-----5------5--|------5-------5--|-----4------4----|------4-------4--|
A|--------5------|----------5------|--5--------------|--5--------------|
E|--3------------|--3--------------|--------5--------|----------5------|

(with Above Riff):

            G                 D7
All the way home, all the way home.

    D7              A7                  D7
e|---------------|--------0----------|---------------|--0----------------|
B|-----3--3-3-3--|----2-------2---2--|-----3---------|----3-------3---3--|
G|-----5--5-5-5--|------0-------0----|----------5----|--------5-----5----|
D|-----4--4-4-4--|----------2--------|-----4------4--|------4-------4----|
A|--5------------|--0----------------|--5------------|--5----------------|
E|---------------|-------------------|--------5------|----------5--------|

(with Above Riff):

(D7)                      A7               D7
 Yes, I'm gonna cry, cry, cry, all the way home.

Verse 2:

          D7
Well, her daddy never liked me; this he said.
                                              A7
And he could not get it through his old, grey head.
       D                              G               G#dim
That I loved his daughter so; did not mean to see her go.
              D7        A7               D7
Now I'm gonna cry, cry, cry, all the way home.

Chorus 2:

    G                                 D7
e|---------------|-----------------|-----------------|-----------------|
B|-----3---------|--------3--------|-----3--------3--|--------3--------|
G|----------4----|----4-------4----|----------5------|----5-------5----|
D|-----5------5--|------5-------5--|-----4------4----|------4-------4--|
A|--------5------|----------5------|--5--------------|--5--------------|
E|--3------------|--3--------------|--------5--------|----------5------|

(with Above Riff):

            G                 D7
All the way home, all the way home.

    D7              A7                  D7
e|---------------|--------0----------|-----------------|-----------|
B|-----3--3-3-3--|----2-------2---2--|-----3-----------|--3--------|
G|-----5--5-5-5--|------0-------0----|----------5---5--|-----5-----|
D|-----4--4-4-4--|----------2--------|-----4------4----|-----------|
A|--5------------|--0----------------|--5--------------|--5--------|
E|---------------|-------------------|--------5--------|-----------|

(with Above Riff):

(D7)                      A7               D7
 Now, I'm gonna cry, cry, cry, all the way home.

Solo:

    D7
e|-----------------|---------------------|---------------------|----------|
B|--10-------------|---------------------|---------------------|----------|
G|-----11--12b13---|--12b14-12b14r12-10--|---------------------|--10b11---|
D|-----------------|---------------------|--12--12-12-10-10-9--|----------|
A|-----------------|---------------------|---------------------|----------|
E|-----------------|---------------------|---------------------|----------|

                                  A7
e|--10----------|--10----------|-----------------|----------|
B|--------------|--------------|--10--10-10--10--|--10------|
G|--------------|--------------|-----------------|----------|
D|------12b13---|------12b13---|-----------------|----------|
A|--------------|--------------|-----------------|----------|
E|--------------|--------------|-----------------|----------|

    D7
e|----------------|------------------------------|
B|--------13------|--------13--------------------|
G|--13b14----r13--|--13b14----13b14-13b14r13\12--|
D|----------------|------------------------------|
A|----------------|------------------------------|
E|----------------|------------------------------|

    G              G#dim
e|--------------|---------------------------|
B|--------------|---------------------------|
G|--10b11-------|--10b--10b11--10b--10b12---|
D|---------12---|---------------------------|
A|--------------|---------------------------|
E|--------------|---------------------------|

    D7                   A7              D7
e|--------------------|---------------|---------------|-------|
B|--------------------|---------------|---------------|-------|
G|--10b12r10----------|---------------|--2--4--2------|-------|
D|-----------12---12--|--10b11--------|----------4-4--|-------|
A|--------------------|---------12\---|---------------|--5----|
E|--------------------|---------------|---------------|-------|

Chorus 3:

            G7                D7
All the way home, all the way home.
                  D    C    A7               D7
Oh yes, I'm gonna cry, cry, cry, all the way home. One more time...
            G7                D7
All the way home, all the way home.
          D    C    A                G7   D7  D9
I'm gonna cry, cry, cry, all the way ho...me.


CHORD DIAGRAMS:
---------------

   D7      A7      G      G#dim    D       C       A       G7      D9

 EADGBE  EADGBE  EADGBE  EADGBE  EADGBE  EADGBE  EADGBE  EADGBE  EADGBE
 x5453x  x02020  355433  xx3434  xx0232  x32010  x02220  353433  x5455x


Tabbed by Joel from cLuMsY, Bristol, England, 2004 (clumsyband@hotmail.com)
Suggest correction
comments
print report bad tab
1 comment total.
0 reply
niuguitarman 173 wrote on February 26 2007, 08:48 pm

great job!

guest
You may want to rate the tab now too:
select rating
Please do not post tabs as comments. Select "correction" instead!