Oops, an error
Loading. Please wait.

Big Bottom Tab

version 1
version 1

Whole song

Interactive

6,503 views 6 this week
no commentswrite comment
1 2 3 4 5
please rate
add to favorites
launch autoscroll
font size
0
reset
how to read this tab
guitar tuner
Autoscroll
slow
fast
+/-
esc
set tempo
stop
Help us to improve Ultimate-Guitar.com Take our survey!
×
Author
this is in drop d (only the 6 string)

(Intro)
e----------------------------------------|
b----------------------------------------|
g----------------------------------------|
d----------------------------------------| x3
a----------3-2-3-2-3----------3-2-3-2-3--|
d---3-4-5-5----------3-0-3-5-5-----------|

(Verses [all])
e-------------------------------------------------------|
b-------------------------------------------------------|
g-------------------------------------------------------|
d-------------------------------------------------------|
a---------------------------------------------3-2-3-2-3-|
d---3-0-3-5-5-3-3-0-0-3-3-5-5-3-3-0-0-3-3-5-5-----------|
Suggest correction
Give kudos to tab author, rate the tab!
1 2 3 4 5
comments
print report bad tab
guest
You may want to rate the tab now too:
select rating
Please do not post tabs as comments. Select "correction" instead!