Oops, an error
Loading. Please wait.

Majesty Of Rock Tab

version 1
version 1

Whole song

Interactive

3,180 views 1 this week
4 commentsread comments
1 2 3 4 5
x 3
add to favorites
launch autoscroll
font size
0
reset
how to read this tab
guitar tuner
Autoscroll
slow
fast
+/-
esc
set tempo
stop
Help us to improve Ultimate-Guitar.com Take our survey!
×
Author
Difficulty
intermediate
Majesty Of Rock
Spinal Tap                            
Tabbed By Mad Mart


Intro:

E|------------------------------------------------------------------------|
B|-----9-10-12-10-9----10-9------9------------9-10-12-10-9----10-9--------|
G|-9-11-------------11------11-9--11-9-8--9-11--------------11------11-99-|
D|------------------------------------------------------------------------|
A|------------------------------------------------------------------------|       
E|------------------------------------------------------------------------|


Keep playing an E chord


Vers : E     D A E x 2

Bridge:  G    G A E   A   B


There's a pulse in the new-born sun
A beat in the heat of the noon
There's a song as the day grows long
And a tempo in the tides of the moon
It's all around us and it's everywhere
And it's deeper than royal blue
And it feels so real you can feel the feeling


Chorus: E  A  F# B G# C# B A B    E...

And that's the majesty of rock
The fantasy of roll
The ticking of the clock
The wailing of the soul
The prisoner in the dock
The digger in the hole
We're in this together...and ever...

Vers : E     D A E x 2

Bridge:  G    G A E   A   B


In the shade of a jungle glade
Or the rush of the crushing street
On the plain, on the foamy main
You can never escape from the beat
It's in the mud and it's in your blood
And it's conquest is complete
And all that you can do is just surrender


Chorus: E  A  F# B G# C# B A B    E...

To the majesty of rock
The pageantry of roll
The crowing of the cock
The running of the foal
The shepherd with his flock
The miner with his coal
We're in this together...and ever...

SOLO:  

E|----------------------------------------------|
B|----------------------------------------------|
G|------7-----7-----7-----7--9------------------|  X 3 (listen to
D|------5--7—-5--7--5--7--5--7---2-2-2----------|       hear the beat)
A|---------5-----5-----5---------2-2-2----------|       
E|-------------------------------0-0-0----------|




Vers : E     D A E x 2

Bridge:  G    G A E   A   B


When we die, do we hunt the sky?
Do we lurk in the murk of the seas?
What then? Are we born again?
Just to sit asking questions like these?
I know, for I told me so
And I'm sure each of you quite agrees
The more it stays the same, the less it changes

Chorus: E  A  F# B G# C# B A B    E...

And that's the majesty of rock
The mystery of roll
The darning of the sock
The scoring of the goal
The farmer takes a wife
The barber takes a pole
We're in this together...and ever...

E|------------------------------------------------------------------------|
B|-----9-10-12-10-9----10-9------9------------9-10-12-10-9----10-9--------|
G|-9-11-------------11------11-9--11-9-8--9-11--------------11------11-99-|
D|------------------------------------------------------------------------|
A|------------------------------------------------------------------------|       
E|------------------------------------------------------------------------|



Suggest correction
Give kudos to tab author, rate the tab!
1 2 3 4 5
comments
print report bad tab
4 comments total. Showing first comments.
0 reply
thor0373 50 Jul 14, 2009 04:18 PM

i know that it takes a long time...
but the least you could do was to make the corus a bit clearer.

0 reply
thor0373 50 Jul 14, 2009 04:26 PM

here you go

e|-------------------9-------------
B|----10------11--9-----11--10--11-
G|-9------11-----------------------
D|---------------------------------
A|---------------------------------
E|---------------------------------

0 reply
thor0373 50 Jul 14, 2009 04:28 PM

i used 2-3 min making that tab...

and it goes: E A F# B G# C# B A B
listen to the corus and youll hear that it is what they play..

guest
You may want to rate the tab now too:
select rating
Wanna post a correction for this tab? Suggest correction