Oops, an error
Loading. Please wait.

Rock And Roll Creation Bass Tab

332 views 1 this week
1 commentread comment
1 2 3 4 5
please rate
add to favorites
launch autoscroll
font size
0
reset
guitar tuner
Tab Pro tools
  • play this tab
  • loop segment
  • change instrument
  • show fretboard
  • metronome
×
Best way to learn
"Rock And Roll Creation"
Autoscroll
slow
fast
+/-
esc
set tempo
stop
Contributor
Difficulty
intermediate
This is the song where "Derek Smalls" gets caught in the pod.

Intro

G|------------------------------------------------------------------|
D|------------------------------------------------------------------|
A|-17/7-----------------------17/7---------------------------10-9-8-|
E|-------15/6---15/3---15/6---------15/6---15/3----15/6-8-10--------|

Verse

G|--------------------------------------------------------------------|
D|--------------------------------------------------------------------|
A|-17/7----------------------17/7-------------------------------------|
E|------15/6---15/3---15/6---------15/6---15/3----3335555555555555555-|

Pre-Chorus

G|------------------------------|
D|------------------------------|
A|-2-2-2-2-4-5-5-5-5-5-5--------|  x2
E|------------------------3-2-0-|

Chorus

G|-------------------------|
D|-------------------------|
A|-----7-----7---5--10-9-7-|  x2
E|-0-0---0-0---5-----------|

G|--------------------------------10-9-7--|
D|-------------------------10-9-7---------|
A|-----7-----7---5--10-9-7----------------|
E|-0-0---0-0---5--------------------------|

Bridge

G|-------------------------------------------------------------------|
D|-------------------------------------------------------------------|
A|-7-7-7-7-7-7-7-7---------------------------------------------------|
E|-----------------6-6-6-6-6-6-6-6-3-3-3-3-3-3-3-3-3-6-6-6-6-6-6-6-6-|

Intro x1
Verse x1

Interlude

G|----------18-----16-----------------16--------16------|
D|----17-19-----------17-17-----17-19-----19-17----19---|
A|-19-----------------------19--------------------------|
E|------------------------------------------------------|

Bass Solo (listen for time)

G|-16-16-18-16------16--------------------16-----------------------------|
D|-------------19------19-----------17-19--------17-19--------17---------|
A|-------------------------19-19--------------19--------17-19------------|
E|----------------------------------------------------------------0-3-5--|

Bridge 2


G|----------------------------------------------------------------------|
D|-------------------------5-7-5-------5--------------------------------|
A|-3---3--5---5--77-7-777--------7-5-7---7--3---3-5---5-777777--7-------|
E|---5------5---------------------------------5-----5--------------7--3-|

Order:

Intro x1

Verse x1

Pre-Chorus x2

Chorus x1

Bridge 1 x1

Intro x1

Verse x1

Interlude x1

Bass Solo x1

Bridge 2 x1

Intro (Combination) x1
comments
We did not receive enough feedback on this tab! Please rate:
print report bad tab
1 2 3 4 5
1 comment total.
0 reply
B.C.RichRulz wrote on September 23 2014, 03:07 am

that's awesome, thanks for tabbing this

I want to post or [tab]
guest
You may want to rate the tab now too:
select rating
Please do not post tabs as comments. Select "correction" instead!