Oops, an error
Loading. Please wait.

Rock And Roll Creation Tab

version 2
version 2

Whole song

2,124 views 1 this week
no commentswrite comment
1 2 3 4 5
2 more votes to show rating
add to favorites
launch autoscroll
font size
0
reset
how to read this tab
guitar tuner
Autoscroll
slow
fast
+/-
esc
set tempo
stop
Help us to improve Ultimate-Guitar.com Take our survey!
×
Author
Intro & Part 1 of Verse:                           P.M**************
                            x4                                    x2
e|----------------------------|-------------------|-----------------|
B|----------------------------|-------------------|-----------------|
G|----------------------------|-------------------|-----------------|
D|----------8-\---------8-/---|----------8-\------|-----------------|
A|-14-\---8-8-\---5---8-8-/---|-14-\---8-8-\---5--|-8-8-8-8-8-8-8-8-|
E|-12-\---6-------3---6-------|-12-\---6-------3--|-6-6-6-6-6-6-6-6-|

Part 2:

e|--------------------------|-----------------------|
B|--------------------------|-----------------------|
G|-4--4-4-6--7--------------|-4--4-4-6--7-----------|
D|-4--4-4-6--7-----5--7--2--|-4--4-4-6--7-----5--4--|
A|-2--2-2-4--5-----5--7--2--|-2--2-2-4--5-----5--4--|
E|-----------------3--5--0--|-----------------3--2--|

Chorus:
  P.M*   P.M*               x4
e|----------------------------|------------------------|
B|----------------------------|------------------------|
G|-----9------9---------------|----------10-9-7--------|
D|-----9------9---------------|--10-9-7----------------|
A|-----7------7---0-5--10-9-7-|------------------------|
E|-0-0----0-0-----------------|------------------------|
Suggest correction
Give kudos to tab author, rate the tab!
1 2 3 4 5
comments
print report bad tab
guest
You may want to rate the tab now too:
select rating
Wanna post a correction for this tab? Suggest correction