Oops, an error
Loading. Please wait.

Stonehendge Ukulele Chords

116 views 3 this week
no commentswrite comment
1 2 3 4 5
3 more votes to show rating
add to favorites
launch autoscroll
font size
0
reset
transpose
0
reset
display chords
guitar tuner
Autoscroll
slow
fast
+/-
esc
set tempo
stop
Help us to improve Ultimate-Guitar.com Take our survey!
×
the tabs are great for the song, but tehy forgot that St. Hubben's plays chords during
the main lyrics. they are power chords. I don't kno teh letters so here are in tabbs. I
got it form watch it over and over. now with now here they are: the Strum pattern is up
to you, just feel the song

 Stonehenge,
-3----1-|
-3----1-|
-3----1-|
-5----3-|
-5----3-|
-3----1-|
 where the demons dwell
-3----------------1-|
-3----------------1-|
-3----------------1-|
-5----------------3-|
-5----------------3-|
-3----------------1-|
 Where the banshees live and they do live well
-3------------------7--------------------5-|
-3------------------7--------------------5-|
-3------------------7--------------------5-|
-5------------------9--------------------7-|
-5------------------9--------------------7-|
-3------------------7--------------------5-|
 Stonehenge
-3----1-|
-3----1-|
-3----1-|
-5----3-|
-5----3-|
-3----1-|
 Where a man is a man and the children dance to the pipes of pan
-3-------------------7--------------------5-----1-|
-3-------------------7--------------------5-----1-|
-3-------------------7--------------------5-----1-|
-5-------------------9--------------------7-----3-|
-5-------------------9--------------------7-----3-|
-3-------------------7--------------------5-----1-|
 Stonehenge
-3----1-|
-3----1-|
-3----1-|
-5----3-|
-5----3-|
-3----1-|
 Tis a magic place where the moon doth rise
-3-----------------7-------------------5-|
-3-----------------7-------------------5-|
-3-----------------7-------------------5-|
-5-----------------9-------------------7-|
-5-----------------9-------------------7-|
-3-----------------7-------------------5-|
 With a dragon's face
-3---------------1-|
-3---------------1-|
-3---------------1-|
-5---------------3-|
-5---------------3-|
-3---------------1-|
 Stonehenge
-3----1-|
-3----1-|
-3----1-|
-5----3-|
-5----3-|
-3----1-|
 Where the virgins lie
-3-----------------1-|
-3-----------------1-|
-3-----------------1-|
-5-----------------3-|
-5-----------------3-|
-3-----------------1-|
 And the prayer of devils fill the midnight sky
-3-----------------7---------------5--------1-|
-3-----------------7---------------5--------1-|
-3-----------------7---------------5--------1-|
-5-----------------9---------------7--------3-|
-5-----------------9---------------7--------3-|
-3-----------------7---------------5--------1-|
I am not shure form there on but I belive it is the same.
Suggest correction
Give kudos to tab author, rate the tab!
1 2 3 4 5
comments
print report bad tab
guest
You may want to rate the tab now too:
select rating
Wanna post a correction for this tab? Suggest correction