Oops, an error
Loading. Please wait.

Stonehenge Bass Tab

version 1
version 1

Whole song

Interactive

2,400 views 1 this week
2 commentsread comments
1 2 3 4 5
excellent!
x 5
add to favorites
launch autoscroll
font size
0
reset
guitar tuner
Autoscroll
slow
fast
+/-
esc
set tempo
stop
Help us to improve Ultimate-Guitar.com Take our survey!
×
Author
===============================================================================
Stonehenge - Spinal Tap
===============================================================================

Spinal Tap
Stonehenge

Intro
G|-7--6---------5--4---------3--2----------------7/9-7----------------------|
D|-------3------------1------------------------7----------------------------|
A|---------------------------------4---4-5-7-5------------------------------|
E|--------------------------------------------------------------------------|

G|-7--6---------5--4---------3--2-------------------------------------------|
D|-------3------------1-----------------------------------------------------|
A|---------------------------------4---4-5-7-5555555555555555555555-5-5--5--|
E|--------------------------------------------------------------------------|


Chorus
G|-------------------------------------------------------------------------------|
D|-------------------------------------------------------------------------------|
A|---------------33--33--77-5-----------------77--77-033--3-5-77--77-033333-7----|
E|----555--3--1-----3---3-----------555--3--1-----7-------3-------7--------------|
  Stonehenge…

Bridge
G|-------------------------252-4--------------------------|
D|---------------585-4---14---4---------------------------|
A|-2---0---3---47---7--------------------87-87------------|
E|--------------------------------------------------------|


Chorus
G|-------------------------------------------------------------------------------|
D|-------------------------------------------------------------------------------|
A|---------------33--33--77-5-----------------77--77-033--3-5-77--77-033337-7----|
E|----555--3--1-----3---3-----------555--3--1-----7-------3-------7--------------|
  Stonehenge…

G|------------------------/542-------------------------------------|
D|----------------------------532----------------------------------|
A|-55--55--55--55--00-000--------5033--33--33--33------------357-7-|
E|----5---5---5---0-------------------3---3---3---033-333-035------|

G|-----------------------------------------------------------------|
D|------------------------/320-------------------------------------|
A|-55--55--55--55--00-000-----310--------------------------------35|
E|----5---5---5---0--------------30111111111111101233333333333335--|


Bridge
G|-------------------------252-4---------|
D|---------------585-4---14---4----------|
A|-2---0---3---47---7--------------------|
E|---------------------------------------|


Jig section
G|-7-----7--------------------------------------------------------|
D|-7-----7--------------------------------------------------------|
A|-5-----5----5-5---5---0---3---5---5---0-3-55-5---0-3-5---0-3-55-|
E|----------------5---5---0---3---5---5---------------------------|

G|----------------------------------------------------------------|
D|----------------------------------------------------------------|
A|-5---5---0-3-3---5---5---0-3-55---5---5---5---5---5-------5-----|
E|---5---5-------3---5---5----------------------------------------|


Outro
G|-7--6---------5--4---------3--2---------------------------------------------|
D|-------3------------1-------------------------------------------------------|
A|---------------------------------4---4-5-7-555555555555555555555555555-5----|
E|----------------------------------------------------------------------------|


By Sasquatch Bob – www.blunderbuss.com

=============================================================================
Suggest correction
comments
print report bad tab
2 comments total.
0 reply
B.C.RichRulz 331 wrote on July 26 2009, 05:42 pm

awesome tab! exept i dont no about the Jig section but other then that its amazin thanx

0 reply
swave75 382 wrote on July 15 2011, 09:55 am

5 stars just for tabbing this classic!!!

guest
You may want to rate the tab now too:
select rating
Wanna post a correction for this tab? Suggest correction