Oops, an error
Loading. Please wait.

Tonight Im Gonna Rock You Tab

version 1
version 1

Whole song

26,793 views 27 this week
7 commentsread comments
1 2 3 4 5
excellent!
x 14
add to favorites
launch autoscroll
font size
0
reset
how to read this tab
guitar tuner
Autoscroll
slow
fast
+/-
esc
set tempo
stop
Help us to improve Ultimate-Guitar.com Take our survey!
×
Contributor
                                Spinal Tap
                         Tonight Im gonna rock you
                                Tabbed By
                              Guitar(V)asta

This is my first tab and im confident its accurate. 
If there are errors please tell me. 
This is a great song and not very hard to play.
I hope you enjoy and that this tab helps you.


Riff A

1st Guitar plays through 4 times
e|----------------------------------------------|
B|----------------------------------------------|
G|----------------------------------------------|
D|----2-2-------------------2-------------------|
A|----0-0----2-2----3---3-3-0-------------------|
E|--3------3-0-0--3---3-1-----------------------|

2nd Guitar comes in on second time
e|--5h8p5h8p5h8p5h8p5h8p5h8p5--8s10--5----------------|
B|----------------------------------------------------|
G|--------------------------------------7^--5h7p5-5---|
D|--------------------------------------------------7-|
A|----------------------------------------------------|
E|----------------------------------------------------|

e|--------------------------------------------------------|
B|--------------------------------------------------------|
G|--7^~~~~~~~~~~~~~~~~~~~~~~~~~~------------5h7p5--5-5----|
D|------------------------------------------------------7-|
A|--------------------------------------------------------|
E|--------------------------------------------------------|

Verse 1st Guitar Plays once
e|-------------------------------------------------|
B|-------------------------------------------------|
G|-------------------------------------------------|
D|-6s7---9s10--------------------------------------|
A|-4s5---7s8----7-7-9-7--7-7-9-7--7-7-9-7--7-7-9-7-|
E|--------------5-5-5-5--5-5-5-5--5-5-5-5--5-5-5-5-|



Chorus

Guitar 1 and 2 
e|--------------|--play-X4|--play-X4|
B|--------------|---------|---------|
G|--------------|---------|---------|
D|-6s7---9s10---|---------|-9-9-11-9|
A|-4s5---7s8----|-9-9-11-9|-7-7-7--7|
E|--------------|-7-7-7--7|---------|

1st Guitar goes back to Riff A
\
2nd Guitar plays this
e|---------------------------------------|
B|----------------------------7^---------|
G|--7^--7^-------5-5-5---5-------7^--7---|
D|-----a.h.-7--7-------7---7-----------7-|
A|---------------------------------------|
E|---------------------------------------|

verse

chorus

Interlude Play 4 Times
e|--play 3X|-------------|
B|---------|-------------|
G|---------|-------------|
D|---------|------7------|
A|-7-7-9-7-|--7-7-5------|
E|-5-5-5-5-|--5-5--------|

Then play an A5 then D5

Play Riff A

e|-5h8p5h8p5h8p5h8p5h8p5---*7h10p7h10p7h10p7*---------------|
B|--------------------------------------------------------|
G|-------------------------------------------7^-5h7p5-5---|
D|------------------------------------------------------7-|
A|--------------------------------------------------------|
E|--------------------------------------------------------|

**(I use a behind the nut bend for this part.)
verse
chorus

e|---------------------9^--7-7--5-5-------|
B|-7^-------------------------------7^-7^-|
G|----5-7-5-5-----------------------------|
D|------------7---------------------------|
A|----------------------------------------|
E|----------------------------------------|

verse

OUTRO
e|------------------------------------|
B|------------------------------------|
G|------------------------------------|
D|-6s7--9s10-13s14--------------------|
A|-4s5--7s8--11s12-8-8-8-8-8-----8-7--|
E|-----------------6-6-6-6-6-----6-5--|


^= Bend
s= Slide
~= Let ring
h= Hammer on
p= Pull off

Comments are welcome. Please email me at pointblank92@charter.net
or leave me a message on my profile here at UG.

Thanks. 
comments
print report bad tab
7 comments total. Showing first comments.
+1 reply
freefighter712 155 wrote on June 24 2009, 08:03 pm

Perfect

0 reply
Guitar(V)asta 61 wrote on June 26 2009, 03:52 pm

Wow... Thank you very much!

+2 reply
TheHammer 645 wrote on July 11 2009, 04:54 pm

For optimal playing experience, crank your Marshall stack to 11 (Thats one louder, innit?)

I want to post or [tab]
guest
You may want to rate the tab now too:
select rating
Please do not post tabs as comments. Select "correction" instead!