Oops, an error
Loading. Please wait.

Tonight Im Gonna Rock You Tonight Tab

version 1
version 1

Whole song

Interactive

4,883 views 6 this week
4 commentsread comments
1 2 3 4 5
please rate
add to favorites
launch autoscroll
font size
0
reset
how to read this tab
guitar tuner
Autoscroll
slow
fast
+/-
esc
set tempo
stop
Help us to improve Ultimate-Guitar.com Take our survey!
×
Author
Difficulty
intermediate
complete song. it took a while but its done and good.


intro/main verse: repeat four times

e|--------------------------------------------|
B|--------------------------------------------|
G|--------------------------5--------5--------|
D|--5---7-x-7--5--2-x-2--5--5--5--2--5--7-x-7-|
A|--5---7-x-7--5--2-x-2--5--3--5--2--3--7-x-7-|
E|--3---5-x-5--3--0-x-0--3-----3--0-----5-x-5-|

next part:
e|------------------------------------|
B|------------------------------------|
G|--5/7----9/10-----------------------|
D|--5/7----9/10-----------------------|
A|--3/5----7/8------------------------|
E|------------------------------------|

e|------------------------------------|
B|------------------------------------|
G|------------------------------------|
D|------------------------------------|
A|--7-7-9-7-7-7-9-7-7-7-9-7-7-7-9-----|
E|--5-5-5-5-5-5-5-5-5-5-5-5-5-5-5-----|

e|------------------------------------|
B|------------------------------------|
G|--5/7----9/10-------------9--9------|
D|--5/7----9/10----9---9----9--9------|
A|--3/5----7/8-----9---9----7--7------|
E|-----------------7---7--------------|

e|-----------------------------------------------|
B|-----------------------------------------------|
G|-------------------------5--------5------------|
D|-----7-x-7--5--2-x-2--5--5--5--2--5--7-x-7-----|
A|-----7-x-7--5--2-x-2--5--3--5--2--3--7-x-7-----|    x2
E|-----5-x-5--3--0-x-0--3-----3--0-----5-x-5-----|

e|------------------------------------------|
B|------------------------------------------|
G|------------------5/7---9/10--------------|
D|-----7-x-7--5-----5/7---9/10--------------|
A|-----7-x-7--5-----3/5---7/8---------------|
E|-----5-x-5--3-----------------------------|

e|------------------------------------|
B|------------------------------------|
G|------------------------------------|
D|------------------------------------|
A|--7-7-9-7-7-7-9-7-7-7-9-7-7-7-9-----|
E|--5-5-5-5-5-5-5-5-5-5-5-5-5-5-5-----|

e|------------------------------------|
B|------------------------------------|
G|--5/7----9/10-------------9--9------|
D|--5/7----9/10----9---9----9--9------|
A|--3/5----7/8-----9---9----7--7------|
E|-----------------7---7--------------|

e|------------------------------------|
B|------------------------------------|
G|-----------------------------7------|   x3
D|-----------------------------7------|
A|--7-7-9-7-7-7-9-7-7-7-9-7-7--5------|
E|--5-5-5-5-5-5-5-5-5-5-5-5-5---------|

e|------------------------------------|
B|------------------------------------|
G|------------------------------------|
D|------------------------------------|
A|--7-7-9-7-7-7-9-7-7-7-9-7-7-7-9-7---|
E|--5-5-5-5-5-5-5-5-5-5-5-5-5-5-5-5---|

next part: repeat twice
e|------------------------------------|
B|------------------------------------|
G|------------------------------------|
D|------------------------------------|
A|-7--9-9-7-9-9-----------------------|
E|-5--5-5-5-5-5-----------------------|

e|------------------------------------|
B|------------------------------------|
G|------------------------------------|
D|------------------------------------|
A|-7--9-9-7-9-9-----------------------|
E|-5--5-5-5-5-5-----------------------|

e|------------------------------------|
B|------------------------------------|
G|------------------------------------|
D|------------------------------------|
A|-7--9-9-7-9-9-----------------------|
E|-5--5-5-5-5-5-----------------------|

e|------------------------------------|
B|------------------------------------|
G|--------------------5--8-7----------|
D|--------------------5--8-7----------|
A|-7--9-9-7-9-9-------3--6-5----------|
E|-5--5-5-5-5-5-----------------------|

next part:

e|-------------------------------------------------|
B|-------------------------------------------------|
G|--------------------------5--------5-------------|
D|--5---7-x-7--5--2-x-2--5--5--5--2--5--7-x-7------|     x5
A|--5---7-x-7--5--2-x-2--5--3--5--2--3--7-x-7------|
E|--3---5-x-5--3--0-x-0--3-----3--0-----5-x-5------|


e|------------------------------------------|
B|------------------------------------------|
G|------------------5/7---9/10--------------|
D|-----7-x-7--5-----5/7---9/10--------------|
A|-----7-x-7--5-----3/5---7/8---------------|
E|-----5-x-5--3-----------------------------|


e|------------------------------------|
B|------------------------------------|
G|------------------------------------|
D|------------------------------------|     x2
A|--7-7-9-7-7-7-9-7-7-7-9-7-7-7-9-----|
E|--5-5-5-5-5-5-5-5-5-5-5-5-5-5-5-----|

e|------------------------------------|
B|------------------------------------|
G|--5/7----9/10-------------9--9------|
D|--5/7----9/10----9---9----9--9------|
A|--3/5----7/8-----9---9----7--7------|
E|-----------------7---7--------------|

e|-------------------------------------------------|
B|-------------------------------------------------|
G|--------------------------5--------5-------------|
D|--5---7-x-7--5--2-x-2--5--5--5--2--5--7-x-7------|     x2
A|--5---7-x-7--5--2-x-2--5--3--5--2--3--7-x-7------|
E|--3---5-x-5--3--0-x-0--3-----3--0-----5-x-5------|

e|------------------------------------|
B|------------------------------------|
G|----5/7----9/10---------------------|
D|-5--5/7----9/10---------------------|
A|-5--3/5----7/8----------------------|
E|-3----------------------------------|

e|------------------------------------------|
B|------------------------------------------|
G|------------------------------------------|
D|------------------------------------------|
A|--7-7-9-7-7-7-9-7-7-7-9-7-7-7-9-7-7-7-7-7-|
E|--5-5-5-5-5-5-5-5-5-5-5-5-5-5-5-5-5-5-5-5-|


e|------------------------------------|
B|------------------------------------|
G|---5/7----9/10----------------------|
D|---5/7----9/10----------------------|
A|---3/5----7/8-----------------------|
E|------------------------------------|

e|----------------------------------------|
B|----------------------------------------|
G|--8-8-8-8-7-7-7-7-----------------------|    x3
D|--8-8-8-8-7-7-7-7-10-10-10-10-8-8-8-8---|
A|--6-6-6-6-5-5-5-5-10-10-10-10-8-8-8-8---|
E|------------------8--8--8--8--6-6-6-6---|


e|-----------------------------------|
B|-----------------------------------|
G|-8-8-8-8-8-8-8-8-7-7-7-7-7-7-7-7---|
D|-8-8-8-8-8-8-8-8-7-7-7-7-7-7-7-7---|
A|-6-6-6-6-6-6-6-6-5-5-5-5-5-5-5-5---|
E|-----------------------------------|

e|------------------------------------------------|
B|------------------------------------------------|
G|------------------------------------------------|
D|-10-10-10-10-10-10-10-10-8-8-8-8-8-8-8-8----8-7-|
A|-10-10-10-10-10-10-10-10-8-8-8-8-8-8-8-8----8-7-|
E|-8--8--8--8--8--8--8--8--6-6-6-6-6-6-6-6----6-5-|
Suggest correction
What's this?
You can suggest a correction to this tab. Community and Mods will review your correction and vote to approve or reject it.
comments
We did not receive enough feedback on this tab! Please rate:
print report bad tab
1 2 3 4 5
4 comments total. Showing first comments.
-1 reply
JimmyPageJr71 17 wrote on January 18 2007, 08:30 pm

pre-chorus part is wrong, main riff is wrong (shouldnt go to open em)

0 reply
dodo1124066 21 wrote on July 22 2007, 02:41 pm

its awsome

0 reply
supea 219 wrote on December 10 2007, 11:29 am

Actually it should go to open em.

guest
You may want to rate the tab now too:
select rating
Please do not post tabs as comments. Select "correction" instead!