Oops, an error
Loading. Please wait.

Tonight Im Gonna Rock You Tab

version 3
version 3

Whole song

13,322 views 6 this week
17 commentsread comments
1 2 3 4 5
accurate
x 28
add to favorites
launch autoscroll
font size
0
reset
how to read this tab
guitar tuner
Tab Pro tools
  • play this tab
  • loop segment
  • change instrument
  • show fretboard
  • metronome
Autoscroll
slow
fast
+/-
esc
set tempo
stop
Difficulty
novice
After noticing the lack of decent tabs, i'm gonna do it myself. This is a fantastic song.

Main Riff

David
e|-------------------------------------------------------|
b|-------------------------------------------------------|
g|---2-2-----------------2-2-----------------------------|
d|---2-2---2-2-----------2-2-----------------------------|
a|---0-0---2-2---3-----3-0-0-----------------------------|
e|-3-----3-0-0-3---3-1-----------------------------------|

Nigel
e|-3-4-5-4-3-0-3-4-5-4-3-0-3-4-5-4-3-0-12^^--------------|
b|-------------------------------------------------------|
g|-------------------------------------------------------|
d|-------------------------------------------------------|
a|-------------------------------------------------------|
e|-------------------------------------------------------|

Verse

e|-------------------------------------------------------|
b|-------------------------------------------------------|
g|-5-7-------9-10----------------------------------------|
d|-5-7-------9-10-------7--------------------------------|
a|-3-5-5-5-5-7-8--8-8-8-7--------------------------------|
e|----------------------5-5-5-5-5-5-5-5-5----------------|
       . . .      . . .   . . . . . . . .

e|-------------------------------------------------------|
b|-------------------------------------------------------|
g|-5-7-------9-10----------------------------------------|
d|-5-7-------9-10-----------------------9-9-11---9-9-----|
a|-3-5-5-5-5-7-8--8-8-8-9-9-11---9-9-11-7-7-7--7-7-7-----|
e|----------------------7-7-7--7-7-7-7-------------------|
                     ...tonight i'm gonna rock you
Back to main riff

Verse 

then the solo which is in A on top of this

e|-------------------------------------------------------|
b|-------------------------------------------------------|
g|-2-------------------------------5-7-------------------|
d|-2-------------------------------5-7-------------------|
a|-0-0-0-0-0-0-0-0-0-0-0-0-0-0-0-0-3-5-5-5-5-5-5-5-5-5-5-|
e|-------------------------------------------------------|

e|-------------------------------------------------------|
b|-------------------------------------------------------|
g|-------------------------------------------------------|
d|-------------7-----------------------------------------|
a|-5-5-5-5-5-5-7-----------------------------------------|
e|-------------5-5-5-5-5-5-5-5-5-5-5-5-5-5-5-you get it--|

Main Riff

The second time of the last verse (where david screams), the chords slow down.
 


comments
print report bad tab
17 comments total. Showing first comments.
+1 reply
astonmartini wrote on April 25 2006, 04:42 pm

nice tabwork

+2 reply
Brian-guitarist wrote on December 5 2006, 06:36 pm

nice tab, ur right about how bad the other tabs are too.

-1 reply
Ledboy92 wrote on February 2 2007, 04:45 pm

I played... not very good

I want to post or [tab]
guest
You may want to rate the tab now too:
select rating
Please do not post tabs as comments. Select "correction" instead!