Oops, an error
Loading. Please wait.

Anger Denial Acceptance Tab

82 views 3 this week
no commentswrite comment
1 2 3 4 5
excellent!
x 3
add to favorites
launch autoscroll
font size
0
reset
how to read this tab
guitar tuner
Autoscroll
slow
fast
+/-
esc
set tempo
stop
Help us to improve Ultimate-Guitar.com Take our survey!
×
Contributor
Difficulty
Tuning
intermediate
C G C F A D
Spineshank: Anger Denial Acceptance

Transcribed by: mysticguitar77

YouTube Username: MysticGuitar77

Date last modified: December 17, 2012

Tuning: Drop C (C,G,C,F,A,D)

Riff 1
D|-----------------------|
A|-----------------------|
F|-----------------------|
C|-0------------\\\--1-1-|
G|-0--pickslide-\\\--1-1-|
C|-0------------\\\--1-1-|
                     * *

Riff 2    "The cold was almost generosity..."
D|------------------------|
A|---------10-9h10p9h10p9-|
F|-8-8-7~-----------------|
C|------------------------|   x3
G|------------------------|
C|------------------------|

D|-----------------|
A|---------10-9-12-|
F|-8-8-7~----------|
C|-----------------|
G|-----------------|
C|-----------------|

Play Riff 2 x4   "The separation that can't be undone..."

Fill 1
D|---------|
A|---------|
F|-7-7-7-7-|
C|-x-x-x-x-|
G|-5-5-5-5-|
C|---------|

Riff 3    "These walls come crashing down..."
D|-------------------------------------------------------------------------|
A|-------------------------------------------------------------------------|
F|-7-7-7-7-7-7-7-7-10-10-10-10-5-5-5-5-3-3-3-3-3-3-3-3-10-10-10-10-5-5-5-5-|
C|-7-7-7-7-7-7-7-7-10-10-10-10-5-5-5-5-3-3-3-3-3-3-3-3-10-10-10-10-5-5-5-5-|
G|-5-5-5-5-5-5-5-5-8--8--8--8--3-3-3-3-1-1-1-1-1-1-1-1-8--8--8--8--3-3-3-3-|
C|-------------------------------------------------------------------------|

          "We take the life we once embraced..."
D|---------------------------------------------------------------|
A|---------------------------------------------------------------|
F|-7-7-7-7-7-7-7-7-10-10-10-10-7-7-10-10-15-15-15-15-15-15-15-15-|
C|-7-7-7-7-7-7-7-7-10-10-10-10-7-7-10-10-15-15-15-15-15-15-15-15-|
G|-5-5-5-5-5-5-5-5-8--8--8--8--5-5-8--8--13-13-13-13-13-13-13-13-|
C|---------------------------------------------------------------|

D|---------------------|
A|---------------------|
F|-10-10-10-10-5-5-5-5-|
C|-10-10-10-10-5-5-5-5-|
G|-8--8--8--8--3-3-3-3-|
C|---------------------|

Play Riff 3 x2   "The curse of emptiness and time will have its way..."
Play Riff 2 x4   "A beating heart that's bleeding atrophy..."
Play Riff 3 x2   "These walls come crashing down..."

Fill 2
D|------------------------------------------------------------------|
A|------------------------------------------------------------------|
F|------------------------------------------------------------------|
C|-0--1--4--3---0-1-1-1-1-1-1-1-1-1-1-1-1-0--0~------------------0~-|
G|-0--1--4--3---0-1-1-1-1-1-1-1-1-1-1-1-1-0--0~------------------0~-|
C|-0--1--4--3---0-1-1-1-1-1-1-1-1-1-1-1-1-0--0~------------------0~-|
                    * * * * * * * * * *

Riff 4
D|---------------------------------|
A|-------------6-7-----6-7---------|
F|-7-8-7-8-7-8-----7-8-----7-8-7-8-|
C|---------------------------------|
G|---------------------------------|
C|---------------------------------|
   * * * * * * * * * * * * * * * *

Play Riff 4 x8

Fill 3
D|----------------------------|
A|----------------------------|
F|----------------------------|
C|-5-5--5-5-5~----1-1--1-1-1~-|
G|-5-5--5-5-5~----1-1--1-1-1~-|
C|-5-5--5-5-5~----1-1--1-1-1~-|

Riff 5    "This is never coming back..."
D|---------------------------------|
A|---------------------------------|
F|---------------------------------|
C|-0-1-0-1-0-1-3-4-0-1-3-4-0-1-0-1-|
G|-0-1-0-1-0-1-3-4-0-1-3-4-0-1-0-1-|
C|-0-1-0-1-0-1-3-4-0-1-3-4-0-1-0-1-|

Play Riff 5 x4    (followed by Fill 2)

Solo
D|--------------------------------------------------------------------|
A|----------------------------------------------13-14-13-14-13-14-13~-|
F|-10~---11--13h14~---13~--10~---11--13h14~--14-----------------------|
C|--------------------------------------------------------------------|
G|--------------------------------------------------------------------|
C|--------------------------------------------------------------------|

D|--------------------------------------------------|
A|---------------------------------------15--13-15~-|
F|-7~--10~--12~--14~--12~--10~--12~--14~------------|
C|--------------------------------------------------|
G|--------------------------------------------------|
C|--------------------------------------------------|

D|----------------------------|
A|-13h15-12-12h13-10-10h12-9~-|
F|----------------------------|
C|----------------------------|
G|----------------------------|
C|----------------------------|

D|-----------------------------------------------------------------------|
A|-9p8----8-9p8-9p8----8-9p8-9p8----8-9p8----8-9p8-9p8----8-9p8-9p8----8-|
F|-----10-----------10-----------10-------10-----------10-----------10---|
C|-----------------------------------------------------------------------|
G|-----------------------------------------------------------------------|
C|-----------------------------------------------------------------------|

D|-------------------------------------------------------------|
A|-12-12-13-13-15-15-13-13-15-15-16-16-15-15-16-16-18-18-16-16-|
F|-------------------------------------------------------------|
C|-------------------------------------------------------------|
G|-------------------------------------------------------------|
C|-------------------------------------------------------------|

D|-------15-15-------15-15-16-18-16~~~~-|
A|-18-18-------18-18--------------------|
F|--------------------------------------|
C|--------------------------------------|
G|--------------------------------------|
C|--------------------------------------|

Play Riff 5 x4 (palm-muted)

Riff 6   "Conscience broken, words aren't spoken..."
D|------------------------------------------------------|
A|------------------------------------------------------|
F|------------------------------------------------------|
C|-5-5--5-5-5----1-1--1-1-1----0-0--0-0-0----3-3--3-3-3-|
G|-5-5--5-5-5----1-1--1-1-1----0-0--0-0-0----3-3--3-3-3-|
C|-5-5--5-5-5----1-1--1-1-1----0-0--0-0-0----3-3--3-3-3-|

Play Riff 6 x3   "For me, it's just for me..."

Ends on and fades out:
D|---------|
A|---------|
F|---------|
C|-5~------|   (the song ends with vocals and piano)
G|-5~------|
C|-5~------|

Enjoy!!!
comments
We did not receive enough feedback on this tab! Please rate:
print report bad tab
1 2 3 4 5
I want to post or [tab]
guest
You may want to rate the tab now too:
select rating
Please do not post tabs as comments. Select "correction" instead!