Oops, an error
Loading. Please wait.

Murder Suicide Tab

100 views 1 this week
no commentswrite comment
1 2 3 4 5
x 3
add to favorites
launch autoscroll
font size
0
reset
how to read this tab
guitar tuner
Autoscroll
slow
fast
+/-
esc
set tempo
stop
Help us to improve Ultimate-Guitar.com Take our survey!
×
Author
Difficulty
Tuning
intermediate
C G C F A D
Spineshank: Murder-Suicide

Transcribed by: mysticguitar77

YouTube Username: MysticGuitar77

Date last modified: December 18, 2012

Tuning: Drop C (C,G,C,F,A,D)

Riff 1    
D|------------------------------------|
A|------------------------------------|
F|-7-7-7-9-9-9-10-10-10-6-6-6---------|
C|-x-x-x-x-x-x-x--x--x--x-x-x---------|
G|-5-5-5-7-7-7-8--8--8--4-4-4-0-0-0-0-|
C|----------------------------0-0-0-0-|
                              * * * *

D|--------------------------------------------|
A|--------------------------------------------|
F|-7-7-7-9-9-9-10-10-10-6-6-6-----------------|
C|-x-x-x-x-x-x-x--x--x--x-x-x-----------------|
G|-5-5-5-7-7-7-8--8--8--4-4-4-0-0-0-0-0-0-0-0-|
C|----------------------------0-0-0-0-0-0-0-0-|
                              * * * * * * * *

Play Riff 1 x2

Riff 2    "We were the damage blueprint..."
D|---------11-11-11-11-11-11-11-11-11-11-11-11-|
A|---------15-15-15-15-15-15-15-15-15-15-15-15-|
F|---------------------------------------------|
C|---------------------------------------------|
G|-0-0-0-0-------------------------------------|
C|-0-0-0-0-------------------------------------|
   * * * * < these notes have been carried over from Riff 1

Play Riff 2 x8    "You have a gunshot mindframe..."

Riff 3   "We divide!!"
D|----------------|
A|----------------|
F|----------------|
C|----------------|   x3
G|-0-0--0-1p0-1h3-|
C|-0-0--0-1p0-1h3-|
   *

D|----------------|
A|----------------|
F|----------------|
C|----------------|
G|-0-0--0-1p0-3h5-|
C|-0-0--0-1p0-3h5-|
   *

Riff 4    "It's like you're bleeding out my eyes..."
D|-----------------------------------------------------------------|
A|-----------------------------------------------------------------|
F|-----------------------------------------------------------------|
C|-8-8-8-8-8-8-8-8-8-8-8-8-8-8-8-8-3-3-3-3-3-3-3-3-5-5-5-5-1-1-1-1-|
G|-8-8-8-8-8-8-8-8-8-8-8-8-8-8-8-8-3-3-3-3-3-3-3-3-5-5-5-5-1-1-1-1-|
C|-8-8-8-8-8-8-8-8-8-8-8-8-8-8-8-8-3-3-3-3-3-3-3-3-5-5-5-5-1-1-1-1-|

Play Riff 3 x1   "We both die!!"
Play Riff 4 x1   "Just like a murder-suicide..."
Play Riff 2 x8   "It took the second coming..."
Play Riff 3 x1   "We divide!!"
Play Riff 4 x1   "It's like you're bleeding out my eyes..."
Play Riff 3 x1   "We both die!!"
Play Riff 4 x1   "Just like a murder-suicide..."

Riff 5    "Murder-suicide!!"
D|--------------------------------------|
A|----------------------8-8-8-----------|
F|-7-7-7-10-10-10-9-9-9-------10-10-9-9-|
C|--------------------------------------|
G|--------------------------------------|
C|--------------------------------------|

Play Riff 5 x8   "Murder-suicide!!"

Riff 6 - clean   "Just a little fracture..." (all chords tremolo picked)
D|---------------------------------------|
A|---------------------------------------|
F|-7'----10'-9'----12'-10'----15'-14'----|
C|-x-----x---x-----x---x------x---x------| (listen to song for timing)
G|-5'----8'--7'----10'-8'-----13'-12'----|
C|---------------------------------------|

Play Riff 6 x4   "Just a little fracture..."

Riff 7
D|---------0~--|
A|---------0~--|
F|---------0~--|
C|-------------|
G|-0-3-2-0-----|
C|-0-3-2-0-----|

Play Riff 7 x2

Riff 7a
D|-----------------0~-|
A|-----------------0~-|
F|-----------------0~-|
C|--------------------|
G|-0-0-3-3-2-2-0-0----|
C|-0-0-3-3-2-2-0-0----|
   * * * * * * * *

Play Riff 7  x1
Play Riff 7a x4

Riff 8
D|---------11'------10'---9'----8'--|
A|---------15'------14'---13'---12'-|
F|----------------------------------|
C|----------------------------------| (constant strum high notes, listen
G|-0-0-0-0--------------------------|  to song for timing)
C|-0-0-0-0--------------------------|
   * * * *

Play Riff 3 x1   "We divide!!""
Play Riff 4 x1   "It's like you're bleeding out my eyes..."
Play Riff 3 x1   "We both die!!"
Play Riff 4 x1   "Just like a murder-suicide..."
Play Riff 3 x1   "We divide!!"
Play Riff 4 x1   "It's like you're bleeding out my eyes..."
Play Riff 3 x1   "We both die!!"
Play Riff 4 x1   "Just like a murder-suicide..."
Play Riff 5 x8   "Murder-suicide!!"

Ending
D|--------|
A|--------|
F|-7~\\\--|
C|--------|
G|--------|
C|--------|
Suggest correction
Give kudos to tab author, rate the tab!
1 2 3 4 5
comments
print report bad tab
guest
You may want to rate the tab now too:
select rating
Wanna post a correction for this tab? Suggest correction