Oops, an error
Loading. Please wait.

Nothing Left For Me Tab

137 views 1 this week
no commentswrite comment
1 2 3 4 5
x 3
add to favorites
launch autoscroll
font size
0
reset
how to read this tab
guitar tuner
Autoscroll
slow
fast
+/-
esc
set tempo
stop
Help us to improve Ultimate-Guitar.com Take our survey!
×
Author
Difficulty
Tuning
novice
C G C F A D
Spineshank: Nothing Left For Me

Transcribed by: mysticguitar77

YouTube Username: MysticGuitar77

Date last modified: December 18, 2012

Tuning: Drop C (C,G,C,F,A,D)

Riff 1 - clean   "You found a way to get inside..."
D|-------------------------------------------------------------------|
A|-------------------------------------------------------------------|
F|-------------------------------------------------------------------|
C|-7-7-7-8-8-8-7-7-7-8-8-8-7-7-8-7---7-7-7-8-8-8-7-7-7-7-7-7-7-7-7-7-|
G|-5-5-5-5-5-5-5-5-5-5-5-5-5-5-5-5---5-5-5-5-5-5-5-5-5-5-5-5-5-5-5-5-|
C|-0-0-0-0-0-0-0-0-0-0-0-0-0-0-0-0-0-5-5-5-5-5-5-5-5-5-5-5-5-5-5-5-5-|

D|-------------------------------------------------------------------|
A|-------------------------------------------------------------------|
F|-----------------------------------------------5-5-5-5-5-5-5-5-5-5-|
C|-7-7-7-8-8-8-7-7-7-8-8-8-7-7-8-7---8-8-8-8-8---3-3-3-3-3-3-3-3-3-3-|
G|-5-5-5-5-5-5-5-5-5-5-5-5-5-5-5-5---5-5-5-5-5---3-3-3-3-3-3-3-3-3-3-|
C|-0-0-0-0-0-0-0-0-0-0-0-0-0-0-0-0-0-5-5-5-5-5-0-3-3-3-3-3-3-3-3-3-3-|

Play Riff 1 x2   "Now you see through faded eyes..."

Riff 2 - distortion    "And now there's nothing left for me!!"
D|------------------------------------|
A|------------------------------------|
F|-------7--7--7----------------------|
C|-------10-10-10---------------------|
G|-0-0-0----------0-0-0-1/3-0-4-3-1-3-|
C|-0-0-0----------0-0-0-1/3-0-4-3-1-3-|
   * * *          * * *     *     

Riff 3    "You found a comfort in the wounds..."
D|-----------------------------------------------|
A|-----------------------------------------------|
F|-----------------------------------------------|
C|-0-----5-----8-----3-3-3-3-3---1-1-1-1-1---1/3-|
G|-0-x16-5-x16-8-x16-3-3-3-3-3-0-1-1-1-1-1-0-1/3-|
C|-0-----5-----8-----3-3-3-3-3-0-1-1-1-1-1-0-1/3-|
      ^     ^     ^ (these are the # of times you play each chord in front)

Play Riff 3 x2   "You don't exist outside of me..."
Play Riff 1 x1   "Find a way to kill the past..." (clean)
Play Riff 1 x1   "I look at you and see nothing..." (distortion)
Play Riff 3 x2   "You found a comfort in the wounds..."

Riff 4 (alteration of Riff 2)
D|-----------------------------------------------------------------------|
A|-----------------------------------------------------------------------|
F|-------7--7--7----------------------------7--7--7----------------------|
C|-------10-10-10---------------------------10-10-10---------------------|
G|-0-0-0----------0-0-0-1/3-0-4-3-1-3-1-0-0----------0-0-0-1/3-0-4-3-1-3-|
C|-0-0-0----------0-0-0-1/3-0-4-3-1-3-1-0-0----------0-0-0-1/3-0-4-3-1-3-|
   * * *          * * *     *           * *          * * *     *

Riff 5    "I see a ghost of who you are..."
D|--------------------------------------------------------------|
A|--------------------------------------------------------------|
F|-------------------10-10-10-9-9-9-5-5------10-10-10-9-9-9-----|
C|-8-----10-----0----x--x--x--x-x-x-x-x-0----x--x--x--x-x-x-7-7-|
G|-8-x16-10-x16-0-x8-8--8--8--7-7-7-3-3-0-x8-8--8--8--7-7-7-7-7-|
C|-8-----10-----0-----------------------0-------------------7-7-|
                *                       *  ^ (again, this is how many times
                                              you strum the chord that comes
                                              before it)

Play Riff 5 x2 (2nd time through replace the 7-7-7 part at the end
                with a 1-1-1 chord)
Play Riff 2 x1  "And now there's nothing left for me!!"
Play Riff 3 x2  "You found a comfort in the wounds..."
Play Riff 1 x2  (fades out)

Enjoy!!!
Suggest correction
Give kudos to tab author, rate the tab!
1 2 3 4 5
comments
print report bad tab
guest
You may want to rate the tab now too:
select rating
Wanna post a correction for this tab? Suggest correction