Oops, an error
Loading. Please wait.

Synthetic bass

version 2
version 2

Whole song

Interactive

190 views 1 this week
no commentswrite comment
1 2 3 4 5
3 more votes to show rating
add to favorites
×
Save as Personal and add changes to this tab that will be seen only by you. Learn more ›
×
You can save this tab as Personal to edit and correct it or add notes. All changes will be seen only by you. Learn more »
launch autoscroll
font size
0
reset
guitar tuner
edit
Autoscroll
slow
fast
+/-
esc
set tempo
stop
BAND:	   SPINESHANK
SONG:	   Synthetic
ALBUM:	   The Height Of Callousness
TUNING:    (D A D G)
TABBED BY: Jason Starr
(starry_80@hotmail.com)


CHORUS		X2
G|------------------------------------|
D|------------------------------------|
A|-1-1-1-3-4-4-4-3--------------------|
D|-----------------3-4-44444444444444-|


LIGHT VERSE	X4
G|------------------------------------|
D|------------------------------------|
A|------------------------------------|
D|-1---1---1---1---0---0---0---0------|


VERSE		X4
G|------------------------------------|
D|------------------------------------|
A|------------------------------------|
D|-3-3-3---0-0-1---1---1---1-1-1------|


BRIDGE DOWN	X1
G|------------------------------------|
D|------------------------------------|
A|-3-3-3-3-3-3-2-2-2------------------|
D|-------------------4-4-4-4-4-4------|


PLAY CHORUS		X2
PLAY LIGHT VERSE	X4
PLAY VERSE		X4
PLAY BRIDGE DOWN	X1
PLAY CHORUS		X2


BRIDGE UP		X1
G|------------------------------------|
D|------------------------------------|
A|-3-3-3-3-3-3-2-2-2-7-7-7-7-7-7------|
D|------------------------------------|


HARDER BRIDGE		X4
G|------------------------------------|
D|------------------------------------|
A|-3-3333-2~/9999999------------------|
D|------------------------------------|


PLAY LIGHT VERSE	X4
PLAY BRIDGE UP		X2
PLAY CHORUS		X4


OUTRO			X3			  X1
G|---------------------|   |---------------------|
D|---------------------|   |---------------------|
A|---------------------|   |---------------------|
D|-3-3-3-0-1-1-1-1-1-1-|   |-3-3-3-0-1-1-1-2-0-1-|



*******
  KEY
*******
/     = Slide up
~     = Let ring

            
            
Suggest correction
Creating personal tab
Creating personal tab
You can edit any tab online and save it as your Personal.

You can edit, replace or remove any tab part or add personal notes – all changes will be seen only by you.

Personal tabs can be accessed anytime from any device, even offline.
Learn more »
Give kudos to tab author, rate the tab!
1 2 3 4 5
comments
print report bad tab
guest
You may want to rate the tab now too:
select rating
Wanna post a correction for this tab? Suggest correction