Oops, an error
Loading. Please wait.

Contra Todos Los Males De Este Mundo Tab

version 1
version 1

Whole song

48 views 3 this week
no commentswrite comment
1 2 3 4 5
3 more votes to show rating
add to favorites
launch autoscroll
font size
0
reset
how to read this tab
guitar tuner
×
Best way to learn
"Contra Todos Los Males De Este Mundo"
Autoscroll
slow
fast
+/-
esc
set tempo
stop
Intro: Riff 1

F#                E           B
vamos abuscar al enorme dragon
                      G#        A
a sumorada entre las ruinas de oro.
E                    A                      G  E  F#
la noche nos guia,al sol se asomara y al volverse
                  E           B
lo obligaremos a dar su corazon
E     F#            A               E               F# A E F#
a dar el antodoto contra todos los males de este mundo

Riff 1

vamos en procura de aquel viejo tiburon
a las profundidades del mar de la sangre
la marea misma nos guiara y al cambiar
lo obligaremos a dar su direccion                 Riff 2
a dar el antidoto contra todos los males que hay aqui...

Riff 1

E                             D
vamos en procura de un genio tirador
       B                    G           A
que pruebe con nosotros o busquemos la forma
    E                              D
de algo que nos cure la preocupacion
B                          A          E             F# A E F#
algo que nos sirva contra todos los males de este mundo

Riff 1
Riff 3

  Riff 1         X  3        B= estirar LA cuerda hacia arriba
E  ||---------------------------------------------------------------|
B  ||--4-B-4-2-4-2-----2--------------------------------------------|
G  ||---------------3-----3-----------------------------------------|
D  ||-----------------------4-2-4-2-------------------2-4-----------|
A  ||--------------------------------------------1-4----------------|
E  ||--------------------------------0-0-0-2-0-0--------------------|
                X 1                               X 3         X 1
E  ||-------------------------------|---------------------|--------2-2|
B  ||--4-B-4-2-4-2-----2------------|---------------------|------2----|
G  ||---------------3-----3---------|---------------------|-3-4-------|
D  ||-----------------------4-2-4-2-|------------------2-4|-----------|
A  ||-------------------------------|-------------1-4-----|-----------|
E  ||-------------------------------|0-0-0-2-0-0----------|-----------|


   Riff 2
                   X  1
E  ||--------------------------------------------|
B  ||--------------------------------------------|
G  ||--------------------------------------------|
D  ||----------------------------2--4------------|
A  ||----------------------1--4------------------|
E  ||--2-0-2-2---2-0-2-2----------------2--------|

  Riff 3
                 X 1
E  ||-------------------------------|
B  ||-------------------------------|
G  ||-------------------------------|
D  ||-------------------------------|
A  ||---1--2------------------------|
E  ||-----------0--2--2-------------|
Suggest correction
Give kudos to tab author, rate the tab!
1 2 3 4 5
comments
print report bad tab
guest
You may want to rate the tab now too:
select rating
Wanna post a correction for this tab? Suggest correction