Oops, an error
Loading. Please wait.

Contra Todos Los Males De Este Mundo Tab

version 2
version 2

Whole song

119 views 1 this week
no commentswrite comment
1 2 3 4 5
3 more votes to show rating
add to favorites
launch autoscroll
font size
0
reset
how to read this tab
guitar tuner
Autoscroll
slow
fast
+/-
esc
set tempo
stop
Help us to improve Ultimate-Guitar.com Take our survey!
×
Intro: Riff 1

F#7add11        Eadd9           B/D#
vamos abuscar al enorme dragon
                      G#m7       Aadd9
a sumorada entre las ruinas de oro.
Eadd9                     A/C#                 G  C/G
la noche nos guia,al sol se asomara y al volverse
F#7add11                           Eadd9
lo obligaremos a dar su corazón
B/D#                A                E               F# A E F#
a dar el antodoto contra todos los males de este mundo

Riff 1


vamos en procura de aquel viejo tiburon
a las profundidades del mar de la sangre
la marea misma nos guiara y al cambiar
lo obligaremos a dar su direccion                 Riff 2
a dar el antidoto contra todos los males que hay aqui...

Riff 1

B/D#                         D/F#
vamos en procura de un genio tirador
       B/D#                    C/E          D/F#*
que pruebe con nosotros o busquemos la forma
B/D#                                D/F#
de algo que nos cure la preocupacion
B/D#                         A          E             F# A E F#
algo que nos sirva contra todos los males de este mundo

Riff 1
Riff 3

  Riff 1         X  3        B= estirar LA cuerda hacia arriba
E  ||---------------------------------------------------------------|
B  ||--4-B-4-2-4-2-----2--------------------------------------------|
G  ||---------------3-----3-----------------------------------------|
D  ||-----------------------4-2-4-2-------------------2-4-----------|
A  ||--------------------------------------------1-4----------------|
E  ||--------------------------------0-0-0-2-0-0--------------------|
                X 1                               X 3         X 1
E  ||-------------------------------|---------------------|--------2-2|
B  ||--4-B-4-2-4-2-----2------------|---------------------|------2----|
G  ||---------------3-----3---------|---------------------|-3-4-------|
D  ||-----------------------4-2-4-2-|------------------2-4|-----------|
A  ||-------------------------------|-------------1-4-----|-----------|
E  ||-------------------------------|0-0-0-2-0-0----------|-----------|


   Riff 2
                   X  1
E  ||--------------------------------------------|
B  ||--------------------------------------------|
G  ||--------------------------------------------|
D  ||----------------------------2--4------------|
A  ||----------------------1--4------------------|
E  ||--2-0-2-2---2-0-2-2----------------2--------|

  Riff 3
                 X 1
E  ||-------------------------------|
B  ||-------------------------------|
G  ||-------------------------------|
D  ||-------------------------------|
A  ||---1--2------------------------|
E  ||-----------0--2--2-------------|


Acordes

   F#7add11     Eadd9     B/D#    G#m7   Aadd9    A/C#

e-------0---------0-----------------4------0---------------------
b-------0---------0---------4-------4------0-------2--------------
g-------3---------1---------4-------4------6-------2--------------
d-------4---------4---------4-------4------7-------2--------------
a-------4---------2---------6-------6------7-------4--------------
E-------2---------0-----------------4------5---------------------


       C/G       C/E       D/F#*   D/F#

e-------0---------------------------2------
b-------1---------5---------7-------3------
g-------0---------5---------7-------2------
d-------2---------5---------7-------0------
a-------3---------7---------9--------------
E-------3---------------------------2------
Suggest correction
Give kudos to tab author, rate the tab!
1 2 3 4 5
comments
print report bad tab
guest
You may want to rate the tab now too:
select rating
Wanna post a correction for this tab? Suggest correction