Oops, an error
Loading. Please wait.

Ave Seca Chords

version 2
version 2

Whole song

8 views 1 this week
no commentswrite comment
1 2 3 4 5
3 more votes to show rating
add to favorites
launch autoscroll
font size
0
reset
transpose
0
reset
simplify chords
display chords
guitar tuner
Autoscroll
slow
fast
+/-
esc
set tempo
stop
Help us to improve Ultimate-Guitar.com Take our survey!
×
Hola, he visto tablaturas en las que tocan el tema en La lo que es incorrecto,
esto me llevo a subir entonces esta tablatura creo yo mas acertada.
Enjoy


    C7M/5-/6
Gigante, sin ojos, tu vulva
De helada gema, yaga que al
    Gmaj7
Secarse besa los pétalos
    C7M/5-/6
Psicosis de sabia en las ramas que
    Gmaj7
Esperan moverse con tus párpados
    C7M/5-/6
Soleado el borde, desde donde ansias
 Regresar
 Em7
 A
Ven a volar en mi ave seca
 Em7
 A
Hecha con sobras de fantasmas
 Em7
 A
Ven a volar en mi ave seca
 Em7
 A
Ah   ah....

 C7M/5-/6
Inútil castigo, sin fuego
Tu vientre me olvida
 Gmaj7
No tengo paz
 C7M/5-/6
Insomne el perro
En la casa, las ganas
de partir

 Em7
 A
Ven a volar en mi ave seca
 Em7
 A
Hecha con sobras de fantasmas
 Em7
 A
Ven a volar en mi ave seca
 Em7
 A
Hecha con hilos de diamantes
 Em7
 A


    REPETIR 4 VECES

  |-------5-----3-----3--------------------------------------------------
  |----7-----5-----3----2------------------------------------------------
  |------------------------------------2----4-2--6--4-2---6--4--4--------
  |-------------------------------2--4----4------------------------------
  |----------------------------------------------------------------------
  |----------------------------------------------------------------------


ACORDES

C7M/5-/6 (do 7ma mayor con 6ta con 5ta diminuida)

1|----|----|----|----|
2|----|----|----|----|
3|----|--0-|----|----|
4|----|----|----|--0-|
5|----|----|--0-|----|
6|----|----|----|----|


incluso aca le pueden hacer el jueguito del riff con el dedo meñique asi:

  1|------0-----------------------------------
  2|------0-----------------------------------
  3|------2-----------4--2--0--2--------------
  4|------4-----------------------------------
  5|------3-----------------------------------
  6|------------------------------------------


SOlmaj7 (sol con 7ma mayor)

1|----|----|----|----|
2|----|----|--0-|----|
3|----|----|----|--0-|
4|----|----|----|--0-|
5|----|----|--x-|----|
6|----|----|--0-|----|

Em7 (E menor con 7ma menor)

1|----|----|----|----|
2|----|----|--0-|----|
3|----|----|----|----|
4|----|--0-|----|----|
5|----|--0-|----|----|
6|----|----|----|----|
Suggest correction
Give kudos to tab author, rate the tab!
1 2 3 4 5
comments
print report bad tab
guest
You may want to rate the tab now too:
select rating
Wanna post a correction for this tab? Suggest correction