Oops, an error
Loading. Please wait.

Barro Tal Vez Tab

351 views 36 this week
no commentswrite comment
1 2 3 4 5
3 more votes to show rating
add to favorites
launch autoscroll
font size
0
reset
how to read this tab
guitar tuner
Autoscroll
slow
fast
+/-
esc
set tempo
stop
Help us to improve Ultimate-Guitar.com Take our survey!
×
Intro

-------1-----------------------------------------
-----3---3---------3-----------3-----------3-----
---2-------2-----2---2-------0---0-------0---0---
-0-------------0-----------0-----------0---------  X 4
-------------3---------3-2---------2-1---------1-
-------------------------------------------------


(He de gritarle...)

Dm7  Cmaj7/G   F   Bb   Fmaj7   Em7   Eb7

-1-    -0-    -1-  -1-   -0-    -3-   -3-
-1-    -0-    -1-  -3-   -1-    -3-   -2-
-2-    -0-    -2-  -3-   -2-    -4-   -3-
-0-    -2-    -3-  -3-   -3-    -2-   -1-
-x-    -3-    -3-  -1-   -x-    -x-   -x-
-x-    -3-    -1-  -x-   -x-    -x-   -x-


Intro X 2


(He de fusionar...)

Dm7  Cmaj7/G   F   Bb   Fmaj7   A7   Dm

                               -3-
                               -2-
                               -0-
                               -2-
                               -0-
                               -x-


(Arreglo)

-1--3--3/5--3--1-
-1--3--3/5--3--1-
-----------------
-----------------
-----------------
-----------------


(Ya lo estoy queriendo...)

Em7   Eb7   Dm


            --------1------------------------------1-
            ------3---3---------3-----------3------3-
Em7   Eb7   ----2-------2-----2---2-------0---0----2-
            --0-------------0-----------0----------3-
            --------------3---------3-2---------2--1-
            -----------------------------------------


(Y es que esta es mi corteza...)

Dm7   Cmaj7/G   F   Bb   Fmaj7   A7


Intro X 4


(Mi cerebro escupe...)

Dm7   Cmaj7/G   F   Bb   Fmaj7   Em7   Eb7


Intro X 2


(He de fusionar...)

Dm7  Cmaj7/G   F   Bb   Fmaj7   A7   Dm

                               -3-
                               -2-
                               -0-
                               -2-
                               -0-
                               -x-

Arreglo

-1--3--3/5--3--1-
-1--3--3/5--3--1-
-----------------
-----------------
-----------------
-----------------


(Ya lo estoy queriendo...)

Em7   Eb7   Dm


            --------1------------------------------1-
            ------3---3---------3-----------3------3-
Em7   Eb7   ----2-------2-----2---2-------0---0----2-
            --0-------------0-----------0----------3-
            --------------3---------3-2---------2--1-
            -----------------------------------------


(Y es que esta es mi corteza...)

Dm   Cmaj7/G   F   Bb   Fmaj7   A7


--------1------------------------------------------
------3---3---------3-----------3------------3-----
----2-------2-----2---2-------0---0--------0---0---
--0-------------0-----------0------------0-------0-
--------------3---------3-2---------2--1-----------
---------------------------------------------------


*Y el acorde del mas alla del final creo que es este:*

-3-
-4-
-3-
-3-
-x-
-4-
Suggest correction
Give kudos to tab author, rate the tab!
1 2 3 4 5
comments
print report bad tab
guest
You may want to rate the tab now too:
select rating
Wanna post a correction for this tab? Suggest correction