Oops, an error
Loading. Please wait.
304 views 3 this week
no commentswrite comment
1 2 3 4 5
3 more votes to show rating
add to favorites
launch autoscroll
font size
0
reset
guitar tuner
Autoscroll
slow
fast
+/-
esc
set tempo
stop
Help us to improve Ultimate-Guitar.com Take our survey!
×
Cheques
Spinetta & Los Socios Del Desierto
Bajo - Afinación Normal (EADG)
Transcripción por: MARIANO ANDRÉS FERRERIS (mario82@

Intro = Riff Guitarra (3 vueltas) Empieza la cuarta vuelta y entran el bajo y la batería

G-|--------------------------------------------------|--------------------------------------------|
D-|------------------------------------------2--1----|-----------------------------------2--1-----|
A-|-----------------------0-----0--2--0--2--------2--|-----------------------0-----0--2--------2--|
E-|--0--0-----0--4--2--0-----------------------------|--0--0-----0--4--2--0-----------------------|

Repite una vez más estas dos barras y ahora tocar
esto un tiempo menos que antes (esto es lo dificil del riff)

G-|-----------------------------|
D-|-----------------------------|
A-|-----------------0-----------|
E-|--0--0--4--2--0--------------|


Versos (son siempre iguales, pongo las primeras frases como referencia)
G-|---------------------------------------------------------|
D-|---------------------------------------------------------|
A-|-----------------------------------------------3---------|
E-|--0--0-----x--0--0-0---------5--5-----------------3-x-3--|
	  casualmente, yo te...        conocí
	  
	  
Riff Principal
G-|--------------------------------------------|--------------------------------------------------|
D-|-----------------------------------2--1-----|------------------------------------------2--1----|
A-|-----------------------0-----0--2--------2--|-----------------------0-----0--2--0--2--------2--|
E-|--0--0-----0--4--2--0-----------------------|--0--0-----0--4--2--0-----------------------------|

G-|--------------------------------------------|-----------------------------|
D-|-----------------------------------2--1-----|-----------------------------|
A-|-----------------------0-----0--2--------2--|-----------------0-----------|
E-|--0--0-----0--4--2--0-----------------------|--0--0--4--2--0--------------|


Base del Solo de Guitarra (tengo algunas dudas con respecto a algunas notas del final)
G-|------------------------------------------5-----5---7\5---------|
D-|------5---5---5-7^9---5-4---4---4h5-------5-----5---7\5--x--5---|
A-|--7-7---7---7-------------7---7------0-0-----0-----------x--5---|
E-|----------------------------------------------------------------|

Otra base con una variación al final (esto es mío, prueben que no suena mal)
G-|------------------------------------------5-----5---------------|
D-|------5---5---5-7^9---5-4---4---4h5-------5-----5---------------|
A-|--7-7---7---7-------------7---7------0-0-----0------5\3---------|
E-|---------------------------------------------------------x--3---|

El tema se mantiene en este esquema, escuchenlo bien y ordenen las partes como van.
Hay obviamente un par de slides como rellenos que van a escuchar claramente,
la verdad que hoy no tengo la paciencia para armar toda la estructura y detallar
esas partes, pienso que se van a dar cuenta fácilmente. Abajo les dejo las letras.
¡Ah! Y quiero agradecer a Alejandro Mauro, autor de la tab de guitarra que me
dio la base para sacar el resto de las notas.

* El simbolo ^ significa BEND UP (estirar la cuerda hacia arriba)
* El simbolo h significa HAMMER ON (ligado)
* El simbolo \ significa SLIDE DOWN (barrido hacia atrás)
* El simbolo x significa MUTE (apagar el sonido de la cuerda con la mano izquierda)


LETRA:
******
Casualmente yo te conocí
Una noche como hoy
Tu vestido electrico me hirio
Vos bailabas y decias
Shake it, shake it, shake it, shake it baby.

Luego te mudaste con tu sequito
A mi lujosa mansion
Hasta casi entro en tu narcogate
Vos bailabas y decias
Shake it, shake it, shake it, shake it baby.

De nuestro amor tan solo me queda hoy
Un absurdo secador
Me fundiste hasta el BMW
Y yo lo que hago es garpar cheques
Cheques, cheques, cheques, cheques
Suggest correction
Give kudos to tab author, rate the tab!
1 2 3 4 5
comments
print report bad tab
guest
You may want to rate the tab now too:
select rating
Wanna post a correction for this tab? Suggest correction