Oops, an error
Loading. Please wait.

La Miel En Tu Ventana Tab

151 views 1 this week
no commentswrite comment
1 2 3 4 5
3 more votes to show rating
add to favorites
launch autoscroll
font size
0
reset
how to read this tab
guitar tuner
Autoscroll
slow
fast
+/-
esc
set tempo
stop
Help us to improve Ultimate-Guitar.com Take our survey!
×
D - Dsus2 x 2   D

e -----0-2----0-2-------2-5-2------
B --0-2----0-2----2-3-5------5--3-5
G -2 -----2------2-----------------

D - Dsus2 x 3

D                             Dmaj7
No deja de tentarme en las mañanas
D                                Dmaj7
la miel que deja el sol en tu ventana,
    A      A/G         D
El sol, no sabe donde vas
    A      A/G        D G
El sol, no dice yo te amo.
   D                         Am7          D
No deja de tentarme en las mañanas tanta luz.

e ---------2-------2-----------2-5-2---
B -- 2-3-5---2-3-5----2-3-5---------5--
G -2 -------2--------2-----------------
D                             Dmaj7
No deja de tentarme en las mañanas
D                                Dmaj7
la miel que deja el sol en tu ventana
    A     A/G         D
El sol no sabe donde vas
    A      A/G        D G
El sol, no dice yo te amo.
   D                         Am7         D
No deja de tentarme en tu ventana tanta luz.


e ---------2-------2-----------2-5-5-3-2-2----
B -- 2-3-5---2-3-5----2-3-5---------------3---
G -2 -------2--------2------------------------
Suggest correction
Give kudos to tab author, rate the tab!
1 2 3 4 5
comments
print report bad tab
guest
You may want to rate the tab now too:
select rating
Wanna post a correction for this tab? Suggest correction