Oops, an error
Loading. Please wait.

Nasty People Bass

91 views 1 this week
no commentswrite comment
1 2 3 4 5
3 more votes to show rating
add to favorites
×
Save as Personal and add changes to this tab that will be seen only by you. Learn more ›
×
You can save this tab as Personal to edit and correct it or add notes. All changes will be seen only by you. Learn more »
save as personal
new!
launch autoscroll
font size
0
reset
guitar tuner
Autoscroll
slow
fast
+/-
esc
set tempo
stop
Este tema lo toca con bajo de 6 cuerdas Marcelo Torres.
No hay muchas partes del tema donde se justifique usarlo,
con uno de 4 suena bastante igual. No es un tema difícil.
Hay pequeñas variaciones, las cuales puse todas.

     (1 vuelta)
G|------*7*----*7*--|      /: Slide up (?arrastrar? hacia adelante)
D|--------*7*--*7*--|  (*7*): Nota  apoya el dedo sin
A|----------*7*---7-|         pisar la cuerda en el traste  indicado
E|-0h------------h--|      h: Hammer on (ligado)

     (2 vueltas)                     (2 vueltas)
                                     ?Nasty people?       ?behind the?
G|------*7*----*7*-|-----------------------------------------------|
D|--------*7*--*7*-|-----------------------------------------------|
A|----------*7*----|-----------------------------------------------|
E|-0h--------------|-0---0-3-5-3-0--0--3--3-3---0-3-5-3-0--0--3--3-|

                 ?i don´t care?        ?what you think
G|-----------------------------------------------
D|-----------------------------------------------
A|----------------3--3-3------------------3--3-3-
E|-0-3-5-3-0-5--5----------0-3-5-3-0-5--5--------


               ?Nasty people? ?cant´t stand like this?
G|---------------------------------------------
D|---------------------------------------------
A|---------------------------------------------
E|-0-3-5-3-0--0--3--3-3---0-3-5-3-0--0--3--3-3-


                      ?Babe you know,i love you? ?all around the world?
G|-----------------------2----------------------------------------------
D|--------------------2h4-4--------4-5-6-7------------------------------
A|----------2-2-2-2-5-------2-0-2--2-3-4-5--0---7-6-5-4---2-2-----------
E|-0-3-5-3-----------------------------------2--5-4-3-2---------0/7-7/19


                                              (2 vueltas)
 ?i told you?                             ?is so sad to be,in a place like?
G|------*7*----*7*-|---------|------------------------------------------|
D|--------*7*--*7*-|---------|------------------------------------------|
A|----------*7*----|---------|------------------------------------------|
E|-0h------------h-|-0-5-3---|-0-3-5-3-0--0--3--3-3---0-3-5-3-0--0--3-3-|

                 ?I don´t mind not a fuck?
G|-----------------------------------------------
D|-----------------------------------------------
A|----------------3--3-3------------------3--3-3-
E|-0-3-5-3-0-5--5----------0-3-5-3-0-5--5--------

           ?but nasty people? ?cant´t stand like that?
G|---------------------------------------------
D|---------------------------------------------
A|---------------------------------------------
E|-0-3-5-3-0--0--3--3-3---0-3-5-3-0--0--3--3-3-


                      ? Babe you know, i love you baby, you know i love?
G|-----------------------2----------------------------------------------
D|--------------------2h4-4--------4-5-6-7------------------------------
A|----------2-2-2-2-5-------2-0-2--2-3-4-5--0---7-6-5-4---2-2-----------
E|-0-3-5-3-----------------------------------2--5-4-3-2---------0/7-7/19

                                              (2 vueltas)
 ?people´s world?                           (solo del Flaco)
G|------*7*----*7*-|---------|------------------------------------------|
D|--------*7*--*7*-|12/9-----|------------------------------------------|
A|----------*7*----|----12---|------------------------------------------|
E|-0h------------h-|-------0-|-0-3-5-3-0--0--3--3-3---0-3-5-3-0--0--3-3-|

G|-----------------------------------------------
D|-----------------------------------------------
A|----------------3--3-3------------------3--3-3-
E|-0-3-5-3-0-5--5----------0-3-5-3-0-5--5--------

G|---------------------------------------------
D|---------------------------------------------
A|---------------------------------------------
E|-0-3-5-3-0--0--3--3-3---0-3-5-3-0--0--3--3-3-

G|-----------------------2----------------------------------------------
D|--------------------2h4-4--------4-5-6-7------------------------------
A|----------2-2-2-2-5-------2-0-2--2-3-4-5--0---7-6-5-4---2-2-----------
E|-0-3-5-3-----------------------------------2--5-4-3-2---------0/7-7/19


     (3 vueltas)                               (2 vueltas)
   ?Extra,Extra!?                         ?is so sad to be,in a place like?
G|------*7*----*7*-|---------|------------------------------------------|
D|--------*7*--*7*-|---------|------------------------------------------|
A|----------*7*----|---------|------------------------------------------|
E|-0h------------h-|-0-5-3---|-0-3-5-3-0--0--3--3-3---0-3-5-3-0--0--3-3-|

                 ?I don´t stand not a fuck?
G|-----------------------------------------------
D|-----------------------------------------------
A|----------------3--3-3------------------3--3-3-
E|-0-3-5-3-0-5--5----------0-3-5-3-0-5--5--------

           ?but nasty people? ?can´t think like that?
G|---------------------------------------------
D|---------------------------------------------
A|---------------------------------------------
E|-0-3-5-3-0--0--3--3-3---0-3-5-3-0--0--3--3-3-

                       ?Babe you?         (4 vueltas)       ?love you but?
G|-----------------------2--------|-------------------------|--------
D|--------------------2h4-4-------|-4-5-6-7-----------------|--------
A|----------2-2-2-2-5-------2-0-2-|-2-3-4-5------7-6-5-4----|-2-2----
E|-0-3-5-3------------------------|--------------5-4-3-2----|--------


El ligado(h) de las notas dura entre h y h.O sea queda sonando entre
esas marcas
(Aca si parece medio confuso toquen el Mi al aire  desde la marca
del asterisco y listo o no le den importancia a las ligaduras)

Final
?i can´t stand?      *                                          ?Ey,Taxi?
G|-------------------9h----h-----19h---------------h--------------------|
D|-------------------9h----h--------------------------------------------|
A|---------5-6-7-7h--------h7/19h------------------h5h7h---------h------|
E|-9-9-9-9-------0h-------------------h0-0-0-0-0-0h-----h0-0-0----0-----|


    /: Slide up (?arrastrar? hacia adelante)
    h: Hammer on (ligado)
(*7*): Nota  apoya el dedo sin pisar la cuerda en el traste
       indicado


Naty People (Luis Alberto Spinetta)

Nasty people, behind the wheels...
Nasty people, behind the wheels...

I don´t care,what you think
but, nasty people, can´t stand like this?

Babe you know, i love you
but i can´t stand nasty people...
all around the world

You know i told you
is so sad to be, in a place like this...
with nasty people, all around the place...

I don´t mind not a fuck !!!
but nasty people, can´t stand like that...

Babe you know, i love you baby, you know i love,
You but i can´t stand, nasty people´s world

Extra!!!, Extra!!!
It´s a shit baby, you know what i mean
Is so sad to be, in a place like this...
with nasty people, all around here...

I don´t stand not a fuck !!!
but nasty people, can´t think like that...

Babe you know, i love you baby, you know i love,
you honey but i can´t stand,
nasty people world

You know i told you, you know i love you but,
i can´t stand this...
Ey, Taxi!

Mientras sus temas se sigan tocando y escuchando el Carpo y el
Flaco jamás morirán, vivirán eternamente en la memoria de todos...
e-mail: zarathustra4321@
Suggest correction
Give kudos to tab author, rate the tab!
1 2 3 4 5
comments
print report bad tab
guest
Wanna post a correction for this tab? Suggest correction