Oops, an error
Loading. Please wait.

Tu Nombre Sobre Mi Nombre Tab

version 1
version 1

Whole song

295 views 1 this week
no commentswrite comment
1 2 3 4 5
3 more votes to show rating
add to favorites
launch autoscroll
font size
0
reset
how to read this tab
guitar tuner
Autoscroll
slow
fast
+/-
esc
set tempo
stop
Help us to improve Ultimate-Guitar.com Take our survey!
×
Me tomé la libertad de modificar la versión de Benja26 y jeremias andrade


NOTA: PARA QUE ESTA FORMA FUNCIONE,
ES NECESARIO SI O SI AFINAR LA 6ta CUERDA EN "RE"
(EL MI SUPERIOR DEBEMOS BAJARLO UN TONO)

RIFF 1

1|----------------------------------------------|/slide (deslizar)
2|----------------------------------------------|
3|----1-2-1-------------------------------------|
4|---0------2-2-0-2/4/2-0-2/4/2-----------------|
5|--0-------------------------------------------|
6|-0--------------------------------------------|

RIFF 2

1|----------------------------------------------|/slide (deslizar)
2|----------------------------------------------|
3|----1-2-1-------------------------------------|
4|---0------2-2-0-2/4-2-------------------------|
5|--0--------------------2--4-5-4"--------------|"Vibrato
6|-0--------------------------------------------|

RIFF 3

1|---5-5-5-5-----5-5-5--------------------------|
2|---3-2-0-0-----0-2-3--------------------------|
3|---0-0-0-0-----0-0-0--------------------------|
4|---0-0-0-0-----0-0-0--------------------------|
5|----------------------------------------------|
6|---5*----------5*-----------------------------|*Dejar sonar

RIFF 4

1|---2-0-0-0------------------------------------|
2|---0-0-3-3-----2-3-5--------------------------|
3|---0-0-0-0-----0-0-0--------------------------|
4|---0-0-0-0-----0-0-0--------------------------|
5|----------------------------------------------|
6|---5*----------5*-----------------------------|*Dejar sonar


INTRO: RIFF 1 - RIFF 2

RIFF 1
Mientras el sol se filtra por mi ventana
RIFF 2
no sé si aquella luz se regresa aquí.
RIFF 1
No sabes como extraño mi calma,
RIFF 2
no sé si voy a ser feliz asi...

Estribillo:

       RIFF 3
Dime mi amor ¿Me perdí?
       RIFF 4
Dime porque no te vi.
       FA7M(b5)/C                  E        Em
Y espero que te olvides mi nombre.

Riff

Mientras el sol se filtra por mi ventana
la lluvia brinda su aire en mi.
No sabes como extraño mi calma,
no sabes si voy a ser feliz así.

Estribillo:

Dime mi amor ¿Qué pasó?
No se porque yo no fui.
Y espero que te olvides mi nombre.

Estribillo 2:

       Gm7                     Csus2/A
Solo espero que las brumas del alba
       Dm7/A          Bbmaj7 - Am7
traigan un nombre a mi vida.
       Gm7                 Csus2/A
Espero que las llamas del alba
       Dm7/A          Bbmaj7 - Am7
traigan un alma.


Bien sabes como extraño mi alma,
no se si aquella luz se queda.
Sabes como extraño tu alma,
no se si aquella luz se queda en mi.

Estribillo:

Hu, Hu, Hu, Hu, hay, hay, hay
Hu, Hu, Hu, Hu, hay, hay, hay
Y espero que te olvides mi nombre.

Estribillo 2:

Espero que las llamas del alba
traigan un rumbo a mi vida.
Espero solo espero tu nombre
sobre mi nombre en este día.

      A7M9(b5)                 A7/E
La eternidad busca un paso en tí, amor.
         A7M9(b5)                 A7/E                  Aadd9/E-A7/E
Es que la eternidad solo busca un paso en ti, amor.

RIFF 1 y RIFF 2
Termina con  Dsus2

ACORDES
FA7M(b5)/C  : X33200
Csus2/A     : X05533
Dm7/A       : X00211
BbMaj7      : X13231
Am7         : X02010
A7M9(b5)    : 746444
A7/E        : X75655
Aadd9/E     : X78655
Dsus2       : 000230


GRACIAS POR TODO FLACO...
TU MÚSICA VIVIRÁ POR SIEMPRE...
Suggest correction
Give kudos to tab author, rate the tab!
1 2 3 4 5
comments
print report bad tab
guest
You may want to rate the tab now too:
select rating
Wanna post a correction for this tab? Suggest correction